  0
SECTION
  2
HEADER
  9
$ACADVER
  1
AC1009
  9
$INSBASE
 10
0.0
 20
0.0
 30
0.0
  9
$EXTMIN
 10
698000.0
 20
5085000.0
 30
-33.28
  9
$EXTMAX
 10
719000.0
 20
5096000.0
 30
33.28
  9
$LIMMIN
 10
0.0
 20
0.0
  9
$LIMMAX
 10
12.0
 20
9.0
  9
$ORTHOMODE
 70
     0
  9
$REGENMODE
 70
     1
  9
$FILLMODE
 70
     1
  9
$QTEXTMODE
 70
     0
  9
$MIRRTEXT
 70
     1
  9
$DRAGMODE
 70
     2
  9
$LTSCALE
 40
1.0
  9
$OSMODE
 70
     0
  9
$ATTMODE
 70
     1
  9
$TEXTSIZE
 40
0.2
  9
$TRACEWID
 40
0.05
  9
$TEXTSTYLE
  7
STANDARD
  9
$CLAYER
  8
0
  9
$CELTYPE
  6
CONTINUOUS
  9
$CECOLOR
 62
   256
  9
$DIMSCALE
 40
1.0
  9
$DIMASZ
 40
0.18
  9
$DIMEXO
 40
0.0625
  9
$DIMDLI
 40
0.38
  9
$DIMRND
 40
0.0
  9
$DIMDLE
 40
0.0
  9
$DIMEXE
 40
0.18
  9
$DIMTP
 40
0.0
  9
$DIMTM
 40
0.0
  9
$DIMTXT
 40
0.18
  9
$DIMCEN
 40
0.09
  9
$DIMTSZ
 40
0.0
  9
$DIMTOL
 70
     0
  9
$DIMLIM
 70
     0
  9
$DIMTIH
 70
     1
  9
$DIMTOH
 70
     1
  9
$DIMSE1
 70
     0
  9
$DIMSE2
 70
     0
  9
$DIMTAD
 70
     0
  9
$DIMZIN
 70
     0
  9
$DIMBLK
  1

  9
$DIMASO
 70
     1
  9
$DIMSHO
 70
     1
  9
$DIMPOST
  1

  9
$DIMAPOST
  1

  9
$DIMALT
 70
     0
  9
$DIMALTD
 70
     2
  9
$DIMALTF
 40
25.4
  9
$DIMLFAC
 40
1.0
  9
$DIMTOFL
 70
     0
  9
$DIMTVP
 40
0.0
  9
$DIMTIX
 70
     0
  9
$DIMSOXD
 70
     0
  9
$DIMSAH
 70
     0
  9
$DIMBLK1
  1

  9
$DIMBLK2
  1

  9
$DIMSTYLE
  2
STANDARD
  9
$DIMCLRD
 70
     0
  9
$DIMCLRE
 70
     0
  9
$DIMCLRT
 70
     0
  9
$DIMTFAC
 40
1.0
  9
$DIMGAP
 40
0.09
  9
$LUNITS
 70
     2
  9
$LUPREC
 70
     4
  9
$AXISMODE
 70
     0
  9
$AXISUNIT
 10
0.0
 20
0.0
  9
$SKETCHINC
 40
0.1
  9
$FILLETRAD
 40
0.0
  9
$AUNITS
 70
     0
  9
$AUPREC
 70
     0
  9
$MENU
  1
acad
  9
$ELEVATION
 40
0.0
  9
$PELEVATION
 40
0.0
  9
$THICKNESS
 40
0.0
  9
$LIMCHECK
 70
     0
  9
$BLIPMODE
 70
     1
  9
$CHAMFERA
 40
0.0
  9
$CHAMFERB
 40
0.0
  9
$SKPOLY
 70
     0
  9
$TDCREATE
 40
2453781.467546296
  9
$TDUPDATE
 40
2453781.467546296
  9
$TDINDWG
 40
0.0000000000
  9
$TDUSRTIMER
 40
0.0000000000
  9
$USRTIMER
 70
     1
  9
$ANGBASE
 50
0.0
  9
$ANGDIR
 70
     0
  9
$PDMODE
 70
     0
  9
$PDSIZE
 40
0.0
  9
$PLINEWID
 40
0.0
  9
$COORDS
 70
     0
  9
$SPLFRAME
 70
     0
  9
$SPLINETYPE
 70
     6
  9
$SPLINESEGS
 70
    10
  9
$ATTDIA
 70
     0
  9
$ATTREQ
 70
     1
  9
$HANDLING
 70
     1
  9
$HANDSEED
  5
47F
  9
$SURFTAB1
 70
     6
  9
$SURFTAB2
 70
     6
  9
$SURFTYPE
 70
     6
  9
$SURFU
 70
     6
  9
$SURFV
 70
     6
  9
$UCSNAME
  2

  9
$UCSORG
 10
0.0
 20
0.0
 30
0.0
  9
$UCSXDIR
 10
1.0
 20
0.0
 30
0.0
  9
$UCSYDIR
 10
0.0
 20
1.0
 30
0.0
  9
$PUCSNAME
  2

  9
$PUCSORG
 10
0.0
 20
0.0
 30
0.0
  9
$PUCSXDIR
 10
1.0
 20
0.0
 30
0.0
  9
$PUCSYDIR
 10
0.0
 20
1.0
 30
0.0
  9
$USERI1
 70
     0
  9
$USERI2
 70
     0
  9
$USERI3
 70
     0
  9
$USERI4
 70
     0
  9
$USERI5
 70
     0
  9
$USERR1
 40
0.0
  9
$USERR2
 40
0.0
  9
$USERR3
 40
0.0
  9
$USERR4
 40
0.0
  9
$USERR5
 40
0.0
  9
$WORLDVIEW
 70
     1
  9
$SHADEDGE
 70
     3
  9
$SHADEDIF
 70
    70
  9
$TILEMODE
 70
     1
  9
$MAXACTVP
 70
    16
  9
$PINSBASE
 10
0.0
 20
0.0
 30
0.0
  9
$PLIMCHECK
 70
     0
  9
$PEXTMIN
 10
-1.000000E+20
 20
-1.000000E+20
 30
-1.000000E+20
  9
$PEXTMAX
 10
-1.000000E+20
 20
-1.000000E+20
 30
-1.000000E+20
  9
$PLIMMIN
 10
0.0
 20
0.0
  9
$PLIMMAX
 10
12.0
 20
9.0
  9
$UNITMODE
 70
     0
  9
$VISRETAIN
 70
     0
  9
$PLINEGEN
 70
     1
  9
$PSLTSCALE
 70
     0
  9
$TREEDEPTH
 70
  3020
  9
$DWGCODEPAGE
  3
ansi_1252
  0
ENDSEC
  0
SECTION
  2
TABLES
  0
TABLE
  2
VPORT
 70
     1
  0
VPORT
  2
*ACTIVE
 70
     0
 10
0.0
 20
0.0
 11
1.0
 21
1.0
 12
0.0
 22
0.0
 13
0.0
 23
0.0
 14
0.0
 24
0.0
 15
0.0
 25
0.0
 16
0.0
 26
0.0
 36
1.0
 17
706682.782138
 27
5090500.0
 37
0.0
 40
15047.82
 41
1.188914
 42
50.0
 43
26263.33
 44
-26263.33
 50
0.0
 51
0.0
 71
    22
 72
   100
 73
     1
 74
     0
 75
     0
 76
     0
 77
     0
 78
     0
  0
ENDTAB
  0
TABLE
  2
LTYPE
 70
     7
  0
LTYPE
  2
CONTINUOUS
 70
     0
  3
Solid line
 72
    65
 73
     0
 40
0.0
  0
LTYPE
  2
DOT
 70
    64
  3
. . . . . . . . . . . . . . . . . . . . . . . . . . . . . . . . .
 72
    65
 73
     2
 40
0.25
 49
0.0
 49
-0.25
  0
LTYPE
  2
HIDDEN
 70
    64
  3
__ __ __ __ __ __ __ __ __ __ __ __ __ __ __ __ __ __ __ __ __ 
 72
    65
 73
     2
 40
0.375
 49
0.25
 49
-0.125
  0
LTYPE
  2
DASHED
 70
    64
  3
__ __ __ __ __ __ __ __ __ __ __ __ __ __ __ __ __ __ __ __ __
 72
    65
 73
     2
 40
0.75
 49
0.5
 49
-0.25
  0
LTYPE
  2
DASHDOT
 70
    64
  3
__ . __ . __ . __ . __ . __ . __ . __ . __ . __ . __ . __ . _
 72
    65
 73
     4
 40
1.0
 49
0.5
 49
-0.25
 49
0.0
 49
-0.25
  0
LTYPE
  2
DIVIDE
 70
    64
  3
____ . . ____ . . ____ . . ____ . . ____ . . ____ . . ____ . .
 72
    65
 73
     6
 40
1.25
 49
0.5
 49
-0.25
 49
0.0
 49
-0.25
 49
0.0
 49
-0.25
  0
LTYPE
  2
CENTER
 70
    64
  3
____ _ ____ _ ____ _ ____ _ ____ _ ____ _ ____ _ ____ _ ____ _
 72
    65
 73
     4
 40
2.0
 49
1.25
 49
-0.25
 49
0.25
 49
-0.25
  0
ENDTAB
  0
TABLE
  2
LAYER
 70
     4
  0
LAYER
  2
0
 70
     0
 62
     7
  6
CONTINUOUS
  0
LAYER
  2
CONSTRUCTION_CLASS
 70
     0
 62
     7
  6
CONTINUOUS
  0
LAYER
  2
PATTERN_CLASS
 70
     0
 62
     7
  6
CONTINUOUS
  0
LAYER
  2
1
 70
    64
 62
     7
  6
CONTINUOUS
  0
ENDTAB
  0
TABLE
  2
STYLE
 70
     2
  0
STYLE
  2
STANDARD
 70
     0
 40
0.0
 41
1.0
 50
0.0
 71
     0
 42
0.0
  3
txt
  4

  0
STYLE
  2
ROMANS
 70
     0
 40
0.2
 41
1.0
 50
0.0
 71
     0
 42
0.2
  3
ROMANS
  4

  0
ENDTAB
  0
TABLE
  2
VIEW
 70
     0
  0
ENDTAB
  0
TABLE
  2
UCS
 70
     0
  0
ENDTAB
  0
TABLE
  2
APPID
 70
     1
  0
APPID
  2
ACAD
 70
     0
  0
ENDTAB
  0
TABLE
  2
DIMSTYLE
 70
     1
  0
DIMSTYLE
  2
STANDARD
 70
     0
  3

  4

  5

  6

  7

 40
1.0
 41
0.18
 42
0.0625
 43
0.38
 44
0.18
 45
0.0
 46
0.0
 47
0.0
 48
0.0
140
0.18
141
0.09
142
0.0
143
25.4
144
1.0
145
0.0
146
1.0
147
0.09
 71
     0
 72
     0
 73
     1
 74
     1
 75
     0
 76
     0
 77
     0
 78
     0
170
     0
171
     2
172
     0
173
     0
174
     0
175
     0
176
     0
177
     0
178
     0
  0
ENDTAB
  0
ENDSEC
  0
SECTION
  2
BLOCKS
  0
ENDSEC
  0
SECTION
  2
ENTITIES
  0
POLYLINE
  8
1
  6
CONTINUOUS
 62
     3
  5
29
 66
     1
 10
0.0
 20
0.0
 30
0.0
 70
     1
210
0.0
220
0.0
230
1.0
  0
VERTEX
  8
1
  6
CONTINUOUS
 62
     3
  5
2A
 10
700000.0
 20
5091000.0
 30
0.0
  0
VERTEX
  8
1
  6
CONTINUOUS
 62
     3
  5
2B
 10
700000.0
 20
5092000.0
 30
0.0
  0
VERTEX
  8
1
  6
CONTINUOUS
 62
     3
  5
2C
 10
701000.0
 20
5092000.0
 30
0.0
  0
VERTEX
  8
1
  6
CONTINUOUS
 62
     3
  5
2D
 10
701000.0
 20
5091000.0
 30
0.0
  0
SEQEND
  8
1
  6
CONTINUOUS
 62
     3
  5
2E
  0
TEXT
  8
1
  6
CONTINUOUS
 62
     3
  5
30
 10
700485.42
 20
5091493.75
 30
0.0
 40
12.5
  1
001
  7
ROMANS
 72
     4
 11
700500.0
 21
5091500.0
 31
0.0
210
0.0
220
0.0
230
1.0
  0
POLYLINE
  8
1
  6
CONTINUOUS
 62
     3
  5
31
 66
     1
 10
0.0
 20
0.0
 30
0.0
 70
     1
210
0.0
220
0.0
230
1.0
  0
VERTEX
  8
1
  6
CONTINUOUS
 62
     3
  5
32
 10
700000.0
 20
5092000.0
 30
0.0
  0
VERTEX
  8
1
  6
CONTINUOUS
 62
     3
  5
33
 10
700000.0
 20
5093000.0
 30
0.0
  0
VERTEX
  8
1
  6
CONTINUOUS
 62
     3
  5
34
 10
701000.0
 20
5093000.0
 30
0.0
  0
VERTEX
  8
1
  6
CONTINUOUS
 62
     3
  5
35
 10
701000.0
 20
5092000.0
 30
0.0
  0
SEQEND
  8
1
  6
CONTINUOUS
 62
     3
  5
36
  0
TEXT
  8
1
  6
CONTINUOUS
 62
     3
  5
37
 10
700483.86
 20
5092493.75
 30
0.0
 40
12.5
  1
002
  7
ROMANS
 72
     4
 11
700500.0
 21
5092500.0
 31
0.0
210
0.0
220
0.0
230
1.0
  0
POLYLINE
  8
1
  6
CONTINUOUS
 62
     3
  5
38
 66
     1
 10
0.0
 20
0.0
 30
0.0
 70
     1
210
0.0
220
0.0
230
1.0
  0
VERTEX
  8
1
  6
CONTINUOUS
 62
     3
  5
39
 10
699000.0
 20
5091000.0
 30
0.0
  0
VERTEX
  8
1
  6
CONTINUOUS
 62
     3
  5
3A
 10
699000.0
 20
5092000.0
 30
0.0
  0
VERTEX
  8
1
  6
CONTINUOUS
 62
     3
  5
3B
 10
700000.0
 20
5092000.0
 30
0.0
  0
VERTEX
  8
1
  6
CONTINUOUS
 62
     3
  5
3C
 10
700000.0
 20
5091000.0
 30
0.0
  0
SEQEND
  8
1
  6
CONTINUOUS
 62
     3
  5
3D
  0
TEXT
  8
1
  6
CONTINUOUS
 62
     3
  5
3E
 10
699483.86
 20
5091493.75
 30
0.0
 40
12.5
  1
003
  7
ROMANS
 72
     4
 11
699500.0
 21
5091500.0
 31
0.0
210
0.0
220
0.0
230
1.0
  0
POLYLINE
  8
1
  6
CONTINUOUS
 62
     3
  5
3F
 66
     1
 10
0.0
 20
0.0
 30
0.0
 70
     1
210
0.0
220
0.0
230
1.0
  0
VERTEX
  8
1
  6
CONTINUOUS
 62
     3
  5
40
 10
699000.0
 20
5092000.0
 30
0.0
  0
VERTEX
  8
1
  6
CONTINUOUS
 62
     3
  5
41
 10
699000.0
 20
5093000.0
 30
0.0
  0
VERTEX
  8
1
  6
CONTINUOUS
 62
     3
  5
42
 10
700000.0
 20
5093000.0
 30
0.0
  0
VERTEX
  8
1
  6
CONTINUOUS
 62
     3
  5
43
 10
700000.0
 20
5092000.0
 30
0.0
  0
SEQEND
  8
1
  6
CONTINUOUS
 62
     3
  5
44
  0
TEXT
  8
1
  6
CONTINUOUS
 62
     3
  5
45
 10
699483.86
 20
5092493.75
 30
0.0
 40
12.5
  1
004
  7
ROMANS
 72
     4
 11
699500.0
 21
5092500.0
 31
0.0
210
0.0
220
0.0
230
1.0
  0
POLYLINE
  8
1
  6
CONTINUOUS
 62
     3
  5
46
 66
     1
 10
0.0
 20
0.0
 30
0.0
 70
     1
210
0.0
220
0.0
230
1.0
  0
VERTEX
  8
1
  6
CONTINUOUS
 62
     3
  5
47
 10
698000.0
 20
5092000.0
 30
0.0
  0
VERTEX
  8
1
  6
CONTINUOUS
 62
     3
  5
48
 10
698000.0
 20
5093000.0
 30
0.0
  0
VERTEX
  8
1
  6
CONTINUOUS
 62
     3
  5
49
 10
699000.0
 20
5093000.0
 30
0.0
  0
VERTEX
  8
1
  6
CONTINUOUS
 62
     3
  5
4A
 10
699000.0
 20
5092000.0
 30
0.0
  0
SEQEND
  8
1
  6
CONTINUOUS
 62
     3
  5
4B
  0
TEXT
  8
1
  6
CONTINUOUS
 62
     3
  5
4C
 10
698483.84
 20
5092493.75
 30
0.0
 40
12.5
  1
005
  7
ROMANS
 72
     4
 11
698500.0
 21
5092500.0
 31
0.0
210
0.0
220
0.0
230
1.0
  0
POLYLINE
  8
1
  6
CONTINUOUS
 62
     3
  5
4D
 66
     1
 10
0.0
 20
0.0
 30
0.0
 70
     1
210
0.0
220
0.0
230
1.0
  0
VERTEX
  8
1
  6
CONTINUOUS
 62
     3
  5
4E
 10
698000.0
 20
5091000.0
 30
0.0
  0
VERTEX
  8
1
  6
CONTINUOUS
 62
     3
  5
4F
 10
698000.0
 20
5092000.0
 30
0.0
  0
VERTEX
  8
1
  6
CONTINUOUS
 62
     3
  5
50
 10
699000.0
 20
5092000.0
 30
0.0
  0
VERTEX
  8
1
  6
CONTINUOUS
 62
     3
  5
51
 10
699000.0
 20
5091000.0
 30
0.0
  0
SEQEND
  8
1
  6
CONTINUOUS
 62
     3
  5
52
  0
TEXT
  8
1
  6
CONTINUOUS
 62
     3
  5
53
 10
698483.56
 20
5091493.75
 30
0.0
 40
12.5
  1
006
  7
ROMANS
 72
     4
 11
698500.0
 21
5091500.0
 31
0.0
210
0.0
220
0.0
230
1.0
  0
POLYLINE
  8
1
  6
CONTINUOUS
 62
     3
  5
54
 66
     1
 10
0.0
 20
0.0
 30
0.0
 70
     1
210
0.0
220
0.0
230
1.0
  0
VERTEX
  8
1
  6
CONTINUOUS
 62
     3
  5
55
 10
701000.0
 20
5094000.0
 30
0.0
  0
VERTEX
  8
1
  6
CONTINUOUS
 62
     3
  5
56
 10
701000.0
 20
5095000.0
 30
0.0
  0
VERTEX
  8
1
  6
CONTINUOUS
 62
     3
  5
57
 10
702000.0
 20
5095000.0
 30
0.0
  0
VERTEX
  8
1
  6
CONTINUOUS
 62
     3
  5
58
 10
702000.0
 20
5094000.0
 30
0.0
  0
SEQEND
  8
1
  6
CONTINUOUS
 62
     3
  5
59
  0
TEXT
  8
1
  6
CONTINUOUS
 62
     3
  5
5A
 10
701483.86
 20
5094493.75
 30
0.0
 40
12.5
  1
007
  7
ROMANS
 72
     4
 11
701500.0
 21
5094500.0
 31
0.0
210
0.0
220
0.0
230
1.0
  0
POLYLINE
  8
1
  6
CONTINUOUS
 62
     3
  5
5B
 66
     1
 10
0.0
 20
0.0
 30
0.0
 70
     1
210
0.0
220
0.0
230
1.0
  0
VERTEX
  8
1
  6
CONTINUOUS
 62
     3
  5
5C
 10
701000.0
 20
5095000.0
 30
0.0
  0
VERTEX
  8
1
  6
CONTINUOUS
 62
     3
  5
5D
 10
701000.0
 20
5096000.0
 30
0.0
  0
VERTEX
  8
1
  6
CONTINUOUS
 62
     3
  5
5E
 10
702000.0
 20
5096000.0
 30
0.0
  0
VERTEX
  8
1
  6
CONTINUOUS
 62
     3
  5
5F
 10
702000.0
 20
5095000.0
 30
0.0
  0
SEQEND
  8
1
  6
CONTINUOUS
 62
     3
  5
60
  0
TEXT
  8
1
  6
CONTINUOUS
 62
     3
  5
61
 10
701483.86
 20
5095493.75
 30
0.0
 40
12.5
  1
008
  7
ROMANS
 72
     4
 11
701500.0
 21
5095500.0
 31
0.0
210
0.0
220
0.0
230
1.0
  0
POLYLINE
  8
1
  6
CONTINUOUS
 62
     3
  5
62
 66
     1
 10
0.0
 20
0.0
 30
0.0
 70
     1
210
0.0
220
0.0
230
1.0
  0
VERTEX
  8
1
  6
CONTINUOUS
 62
     3
  5
63
 10
702000.0
 20
5095000.0
 30
0.0
  0
VERTEX
  8
1
  6
CONTINUOUS
 62
     3
  5
64
 10
702000.0
 20
5096000.0
 30
0.0
  0
VERTEX
  8
1
  6
CONTINUOUS
 62
     3
  5
65
 10
703000.0
 20
5096000.0
 30
0.0
  0
VERTEX
  8
1
  6
CONTINUOUS
 62
     3
  5
66
 10
703000.0
 20
5095000.0
 30
0.0
  0
SEQEND
  8
1
  6
CONTINUOUS
 62
     3
  5
67
  0
TEXT
  8
1
  6
CONTINUOUS
 62
     3
  5
68
 10
702483.86
 20
5095493.75
 30
0.0
 40
12.5
  1
009
  7
ROMANS
 72
     4
 11
702500.0
 21
5095500.0
 31
0.0
210
0.0
220
0.0
230
1.0
  0
POLYLINE
  8
1
  6
CONTINUOUS
 62
     3
  5
69
 66
     1
 10
0.0
 20
0.0
 30
0.0
 70
     1
210
0.0
220
0.0
230
1.0
  0
VERTEX
  8
1
  6
CONTINUOUS
 62
     3
  5
6A
 10
702000.0
 20
5094000.0
 30
0.0
  0
VERTEX
  8
1
  6
CONTINUOUS
 62
     3
  5
6B
 10
702000.0
 20
5095000.0
 30
0.0
  0
VERTEX
  8
1
  6
CONTINUOUS
 62
     3
  5
6C
 10
703000.0
 20
5095000.0
 30
0.0
  0
VERTEX
  8
1
  6
CONTINUOUS
 62
     3
  5
6D
 10
703000.0
 20
5094000.0
 30
0.0
  0
SEQEND
  8
1
  6
CONTINUOUS
 62
     3
  5
6E
  0
TEXT
  8
1
  6
CONTINUOUS
 62
     3
  5
6F
 10
702483.36
 20
5094493.75
 30
0.0
 40
12.5
  1
010
  7
ROMANS
 72
     4
 11
702500.0
 21
5094500.0
 31
0.0
210
0.0
220
0.0
230
1.0
  0
POLYLINE
  8
1
  6
CONTINUOUS
 62
     3
  5
70
 66
     1
 10
0.0
 20
0.0
 30
0.0
 70
     1
210
0.0
220
0.0
230
1.0
  0
VERTEX
  8
1
  6
CONTINUOUS
 62
     3
  5
71
 10
704000.0
 20
5094000.0
 30
0.0
  0
VERTEX
  8
1
  6
CONTINUOUS
 62
     3
  5
72
 10
704000.0
 20
5095000.0
 30
0.0
  0
VERTEX
  8
1
  6
CONTINUOUS
 62
     3
  5
73
 10
705000.0
 20
5095000.0
 30
0.0
  0
VERTEX
  8
1
  6
CONTINUOUS
 62
     3
  5
74
 10
705000.0
 20
5094000.0
 30
0.0
  0
SEQEND
  8
1
  6
CONTINUOUS
 62
     3
  5
75
  0
TEXT
  8
1
  6
CONTINUOUS
 62
     3
  5
76
 10
704485.42
 20
5094493.75
 30
0.0
 40
12.5
  1
011
  7
ROMANS
 72
     4
 11
704500.0
 21
5094500.0
 31
0.0
210
0.0
220
0.0
230
1.0
  0
POLYLINE
  8
1
  6
CONTINUOUS
 62
     3
  5
77
 66
     1
 10
0.0
 20
0.0
 30
0.0
 70
     1
210
0.0
220
0.0
230
1.0
  0
VERTEX
  8
1
  6
CONTINUOUS
 62
     3
  5
78
 10
704000.0
 20
5095000.0
 30
0.0
  0
VERTEX
  8
1
  6
CONTINUOUS
 62
     3
  5
79
 10
704000.0
 20
5096000.0
 30
0.0
  0
VERTEX
  8
1
  6
CONTINUOUS
 62
     3
  5
7A
 10
705000.0
 20
5096000.0
 30
0.0
  0
VERTEX
  8
1
  6
CONTINUOUS
 62
     3
  5
7B
 10
705000.0
 20
5095000.0
 30
0.0
  0
SEQEND
  8
1
  6
CONTINUOUS
 62
     3
  5
7C
  0
TEXT
  8
1
  6
CONTINUOUS
 62
     3
  5
7D
 10
704483.86
 20
5095493.75
 30
0.0
 40
12.5
  1
012
  7
ROMANS
 72
     4
 11
704500.0
 21
5095500.0
 31
0.0
210
0.0
220
0.0
230
1.0
  0
POLYLINE
  8
1
  6
CONTINUOUS
 62
     3
  5
7E
 66
     1
 10
0.0
 20
0.0
 30
0.0
 70
     1
210
0.0
220
0.0
230
1.0
  0
VERTEX
  8
1
  6
CONTINUOUS
 62
     3
  5
7F
 10
705000.0
 20
5094000.0
 30
0.0
  0
VERTEX
  8
1
  6
CONTINUOUS
 62
     3
  5
80
 10
705000.0
 20
5095000.0
 30
0.0
  0
VERTEX
  8
1
  6
CONTINUOUS
 62
     3
  5
81
 10
706000.0
 20
5095000.0
 30
0.0
  0
VERTEX
  8
1
  6
CONTINUOUS
 62
     3
  5
82
 10
706000.0
 20
5094000.0
 30
0.0
  0
SEQEND
  8
1
  6
CONTINUOUS
 62
     3
  5
83
  0
TEXT
  8
1
  6
CONTINUOUS
 62
     3
  5
84
 10
705483.86
 20
5094493.75
 30
0.0
 40
12.5
  1
013
  7
ROMANS
 72
     4
 11
705500.0
 21
5094500.0
 31
0.0
210
0.0
220
0.0
230
1.0
  0
POLYLINE
  8
1
  6
CONTINUOUS
 62
     3
  5
85
 66
     1
 10
0.0
 20
0.0
 30
0.0
 70
     1
210
0.0
220
0.0
230
1.0
  0
VERTEX
  8
1
  6
CONTINUOUS
 62
     3
  5
86
 10
705000.0
 20
5095000.0
 30
0.0
  0
VERTEX
  8
1
  6
CONTINUOUS
 62
     3
  5
87
 10
705000.0
 20
5096000.0
 30
0.0
  0
VERTEX
  8
1
  6
CONTINUOUS
 62
     3
  5
88
 10
706000.0
 20
5096000.0
 30
0.0
  0
VERTEX
  8
1
  6
CONTINUOUS
 62
     3
  5
89
 10
706000.0
 20
5095000.0
 30
0.0
  0
SEQEND
  8
1
  6
CONTINUOUS
 62
     3
  5
8A
  0
TEXT
  8
1
  6
CONTINUOUS
 62
     3
  5
8B
 10
705483.86
 20
5095493.75
 30
0.0
 40
12.5
  1
014
  7
ROMANS
 72
     4
 11
705500.0
 21
5095500.0
 31
0.0
210
0.0
220
0.0
230
1.0
  0
POLYLINE
  8
1
  6
CONTINUOUS
 62
     3
  5
8C
 66
     1
 10
0.0
 20
0.0
 30
0.0
 70
     1
210
0.0
220
0.0
230
1.0
  0
VERTEX
  8
1
  6
CONTINUOUS
 62
     3
  5
8D
 10
706000.0
 20
5095000.0
 30
0.0
  0
VERTEX
  8
1
  6
CONTINUOUS
 62
     3
  5
8E
 10
706000.0
 20
5096000.0
 30
0.0
  0
VERTEX
  8
1
  6
CONTINUOUS
 62
     3
  5
8F
 10
707000.0
 20
5096000.0
 30
0.0
  0
VERTEX
  8
1
  6
CONTINUOUS
 62
     3
  5
90
 10
707000.0
 20
5095000.0
 30
0.0
  0
SEQEND
  8
1
  6
CONTINUOUS
 62
     3
  5
91
  0
TEXT
  8
1
  6
CONTINUOUS
 62
     3
  5
92
 10
706483.84
 20
5095493.75
 30
0.0
 40
12.5
  1
015
  7
ROMANS
 72
     4
 11
706500.0
 21
5095500.0
 31
0.0
210
0.0
220
0.0
230
1.0
  0
POLYLINE
  8
1
  6
CONTINUOUS
 62
     3
  5
93
 66
     1
 10
0.0
 20
0.0
 30
0.0
 70
     1
210
0.0
220
0.0
230
1.0
  0
VERTEX
  8
1
  6
CONTINUOUS
 62
     3
  5
94
 10
706000.0
 20
5094000.0
 30
0.0
  0
VERTEX
  8
1
  6
CONTINUOUS
 62
     3
  5
95
 10
706000.0
 20
5095000.0
 30
0.0
  0
VERTEX
  8
1
  6
CONTINUOUS
 62
     3
  5
96
 10
707000.0
 20
5095000.0
 30
0.0
  0
VERTEX
  8
1
  6
CONTINUOUS
 62
     3
  5
97
 10
707000.0
 20
5094000.0
 30
0.0
  0
SEQEND
  8
1
  6
CONTINUOUS
 62
     3
  5
98
  0
TEXT
  8
1
  6
CONTINUOUS
 62
     3
  5
99
 10
706483.56
 20
5094493.75
 30
0.0
 40
12.5
  1
016
  7
ROMANS
 72
     4
 11
706500.0
 21
5094500.0
 31
0.0
210
0.0
220
0.0
230
1.0
  0
POLYLINE
  8
1
  6
CONTINUOUS
 62
     3
  5
9A
 66
     1
 10
0.0
 20
0.0
 30
0.0
 70
     1
210
0.0
220
0.0
230
1.0
  0
VERTEX
  8
1
  6
CONTINUOUS
 62
     3
  5
9B
 10
707000.0
 20
5094000.0
 30
0.0
  0
VERTEX
  8
1
  6
CONTINUOUS
 62
     3
  5
9C
 10
707000.0
 20
5095000.0
 30
0.0
  0
VERTEX
  8
1
  6
CONTINUOUS
 62
     3
  5
9D
 10
708000.0
 20
5095000.0
 30
0.0
  0
VERTEX
  8
1
  6
CONTINUOUS
 62
     3
  5
9E
 10
708000.0
 20
5094000.0
 30
0.0
  0
SEQEND
  8
1
  6
CONTINUOUS
 62
     3
  5
9F
  0
TEXT
  8
1
  6
CONTINUOUS
 62
     3
  5
A0
 10
707483.86
 20
5094493.75
 30
0.0
 40
12.5
  1
017
  7
ROMANS
 72
     4
 11
707500.0
 21
5094500.0
 31
0.0
210
0.0
220
0.0
230
1.0
  0
POLYLINE
  8
1
  6
CONTINUOUS
 62
     3
  5
A1
 66
     1
 10
0.0
 20
0.0
 30
0.0
 70
     1
210
0.0
220
0.0
230
1.0
  0
VERTEX
  8
1
  6
CONTINUOUS
 62
     3
  5
A2
 10
707000.0
 20
5095000.0
 30
0.0
  0
VERTEX
  8
1
  6
CONTINUOUS
 62
     3
  5
A3
 10
707000.0
 20
5096000.0
 30
0.0
  0
VERTEX
  8
1
  6
CONTINUOUS
 62
     3
  5
A4
 10
708000.0
 20
5096000.0
 30
0.0
  0
VERTEX
  8
1
  6
CONTINUOUS
 62
     3
  5
A5
 10
708000.0
 20
5095000.0
 30
0.0
  0
SEQEND
  8
1
  6
CONTINUOUS
 62
     3
  5
A6
  0
TEXT
  8
1
  6
CONTINUOUS
 62
     3
  5
A7
 10
707483.86
 20
5095493.75
 30
0.0
 40
12.5
  1
018
  7
ROMANS
 72
     4
 11
707500.0
 21
5095500.0
 31
0.0
210
0.0
220
0.0
230
1.0
  0
POLYLINE
  8
1
  6
CONTINUOUS
 62
     3
  5
A8
 66
     1
 10
0.0
 20
0.0
 30
0.0
 70
     1
210
0.0
220
0.0
230
1.0
  0
VERTEX
  8
1
  6
CONTINUOUS
 62
     3
  5
A9
 10
708000.0
 20
5094000.0
 30
0.0
  0
VERTEX
  8
1
  6
CONTINUOUS
 62
     3
  5
AA
 10
708000.0
 20
5095000.0
 30
0.0
  0
VERTEX
  8
1
  6
CONTINUOUS
 62
     3
  5
AB
 10
709000.0
 20
5095000.0
 30
0.0
  0
VERTEX
  8
1
  6
CONTINUOUS
 62
     3
  5
AC
 10
709000.0
 20
5094000.0
 30
0.0
  0
SEQEND
  8
1
  6
CONTINUOUS
 62
     3
  5
AD
  0
TEXT
  8
1
  6
CONTINUOUS
 62
     3
  5
AE
 10
708483.86
 20
5094493.75
 30
0.0
 40
12.5
  1
019
  7
ROMANS
 72
     4
 11
708500.0
 21
5094500.0
 31
0.0
210
0.0
220
0.0
230
1.0
  0
POLYLINE
  8
1
  6
CONTINUOUS
 62
     3
  5
AF
 66
     1
 10
0.0
 20
0.0
 30
0.0
 70
     1
210
0.0
220
0.0
230
1.0
  0
VERTEX
  8
1
  6
CONTINUOUS
 62
     3
  5
B0
 10
708000.0
 20
5095000.0
 30
0.0
  0
VERTEX
  8
1
  6
CONTINUOUS
 62
     3
  5
B1
 10
708000.0
 20
5096000.0
 30
0.0
  0
VERTEX
  8
1
  6
CONTINUOUS
 62
     3
  5
B2
 10
709000.0
 20
5096000.0
 30
0.0
  0
VERTEX
  8
1
  6
CONTINUOUS
 62
     3
  5
B3
 10
709000.0
 20
5095000.0
 30
0.0
  0
SEQEND
  8
1
  6
CONTINUOUS
 62
     3
  5
B4
  0
TEXT
  8
1
  6
CONTINUOUS
 62
     3
  5
B5
 10
708483.36
 20
5095493.75
 30
0.0
 40
12.5
  1
020
  7
ROMANS
 72
     4
 11
708500.0
 21
5095500.0
 31
0.0
210
0.0
220
0.0
230
1.0
  0
POLYLINE
  8
1
  6
CONTINUOUS
 62
     3
  5
B6
 66
     1
 10
0.0
 20
0.0
 30
0.0
 70
     1
210
0.0
220
0.0
230
1.0
  0
VERTEX
  8
1
  6
CONTINUOUS
 62
     3
  5
B7
 10
709000.0
 20
5094000.0
 30
0.0
  0
VERTEX
  8
1
  6
CONTINUOUS
 62
     3
  5
B8
 10
709000.0
 20
5095000.0
 30
0.0
  0
VERTEX
  8
1
  6
CONTINUOUS
 62
     3
  5
B9
 10
710000.0
 20
5095000.0
 30
0.0
  0
VERTEX
  8
1
  6
CONTINUOUS
 62
     3
  5
BA
 10
710000.0
 20
5094000.0
 30
0.0
  0
SEQEND
  8
1
  6
CONTINUOUS
 62
     3
  5
BB
  0
TEXT
  8
1
  6
CONTINUOUS
 62
     3
  5
BC
 10
709485.42
 20
5094493.75
 30
0.0
 40
12.5
  1
021
  7
ROMANS
 72
     4
 11
709500.0
 21
5094500.0
 31
0.0
210
0.0
220
0.0
230
1.0
  0
POLYLINE
  8
1
  6
CONTINUOUS
 62
     3
  5
BD
 66
     1
 10
0.0
 20
0.0
 30
0.0
 70
     1
210
0.0
220
0.0
230
1.0
  0
VERTEX
  8
1
  6
CONTINUOUS
 62
     3
  5
BE
 10
709000.0
 20
5095000.0
 30
0.0
  0
VERTEX
  8
1
  6
CONTINUOUS
 62
     3
  5
BF
 10
709000.0
 20
5096000.0
 30
0.0
  0
VERTEX
  8
1
  6
CONTINUOUS
 62
     3
  5
C0
 10
710000.0
 20
5096000.0
 30
0.0
  0
VERTEX
  8
1
  6
CONTINUOUS
 62
     3
  5
C1
 10
710000.0
 20
5095000.0
 30
0.0
  0
SEQEND
  8
1
  6
CONTINUOUS
 62
     3
  5
C2
  0
TEXT
  8
1
  6
CONTINUOUS
 62
     3
  5
C3
 10
709483.86
 20
5095493.75
 30
0.0
 40
12.5
  1
022
  7
ROMANS
 72
     4
 11
709500.0
 21
5095500.0
 31
0.0
210
0.0
220
0.0
230
1.0
  0
POLYLINE
  8
1
  6
CONTINUOUS
 62
     3
  5
C4
 66
     1
 10
0.0
 20
0.0
 30
0.0
 70
     1
210
0.0
220
0.0
230
1.0
  0
VERTEX
  8
1
  6
CONTINUOUS
 62
     3
  5
C5
 10
710000.0
 20
5094000.0
 30
0.0
  0
VERTEX
  8
1
  6
CONTINUOUS
 62
     3
  5
C6
 10
710000.0
 20
5095000.0
 30
0.0
  0
VERTEX
  8
1
  6
CONTINUOUS
 62
     3
  5
C7
 10
711000.0
 20
5095000.0
 30
0.0
  0
VERTEX
  8
1
  6
CONTINUOUS
 62
     3
  5
C8
 10
711000.0
 20
5094000.0
 30
0.0
  0
SEQEND
  8
1
  6
CONTINUOUS
 62
     3
  5
C9
  0
TEXT
  8
1
  6
CONTINUOUS
 62
     3
  5
CA
 10
710483.86
 20
5094493.75
 30
0.0
 40
12.5
  1
023
  7
ROMANS
 72
     4
 11
710500.0
 21
5094500.0
 31
0.0
210
0.0
220
0.0
230
1.0
  0
POLYLINE
  8
1
  6
CONTINUOUS
 62
     3
  5
CB
 66
     1
 10
0.0
 20
0.0
 30
0.0
 70
     1
210
0.0
220
0.0
230
1.0
  0
VERTEX
  8
1
  6
CONTINUOUS
 62
     3
  5
CC
 10
710000.0
 20
5095000.0
 30
0.0
  0
VERTEX
  8
1
  6
CONTINUOUS
 62
     3
  5
CD
 10
710000.0
 20
5096000.0
 30
0.0
  0
VERTEX
  8
1
  6
CONTINUOUS
 62
     3
  5
CE
 10
711000.0
 20
5096000.0
 30
0.0
  0
VERTEX
  8
1
  6
CONTINUOUS
 62
     3
  5
CF
 10
711000.0
 20
5095000.0
 30
0.0
  0
SEQEND
  8
1
  6
CONTINUOUS
 62
     3
  5
D0
  0
TEXT
  8
1
  6
CONTINUOUS
 62
     3
  5
D1
 10
710483.86
 20
5095493.75
 30
0.0
 40
12.5
  1
024
  7
ROMANS
 72
     4
 11
710500.0
 21
5095500.0
 31
0.0
210
0.0
220
0.0
230
1.0
  0
POLYLINE
  8
1
  6
CONTINUOUS
 62
     3
  5
D2
 66
     1
 10
0.0
 20
0.0
 30
0.0
 70
     1
210
0.0
220
0.0
230
1.0
  0
VERTEX
  8
1
  6
CONTINUOUS
 62
     3
  5
D3
 10
711000.0
 20
5094000.0
 30
0.0
  0
VERTEX
  8
1
  6
CONTINUOUS
 62
     3
  5
D4
 10
711000.0
 20
5095000.0
 30
0.0
  0
VERTEX
  8
1
  6
CONTINUOUS
 62
     3
  5
D5
 10
712000.0
 20
5095000.0
 30
0.0
  0
VERTEX
  8
1
  6
CONTINUOUS
 62
     3
  5
D6
 10
712000.0
 20
5094000.0
 30
0.0
  0
SEQEND
  8
1
  6
CONTINUOUS
 62
     3
  5
D7
  0
TEXT
  8
1
  6
CONTINUOUS
 62
     3
  5
D8
 10
711483.84
 20
5094493.75
 30
0.0
 40
12.5
  1
025
  7
ROMANS
 72
     4
 11
711500.0
 21
5094500.0
 31
0.0
210
0.0
220
0.0
230
1.0
  0
POLYLINE
  8
1
  6
CONTINUOUS
 62
     3
  5
D9
 66
     1
 10
0.0
 20
0.0
 30
0.0
 70
     1
210
0.0
220
0.0
230
1.0
  0
VERTEX
  8
1
  6
CONTINUOUS
 62
     3
  5
DA
 10
711000.0
 20
5095000.0
 30
0.0
  0
VERTEX
  8
1
  6
CONTINUOUS
 62
     3
  5
DB
 10
711000.0
 20
5096000.0
 30
0.0
  0
VERTEX
  8
1
  6
CONTINUOUS
 62
     3
  5
DC
 10
712000.0
 20
5096000.0
 30
0.0
  0
VERTEX
  8
1
  6
CONTINUOUS
 62
     3
  5
DD
 10
712000.0
 20
5095000.0
 30
0.0
  0
SEQEND
  8
1
  6
CONTINUOUS
 62
     3
  5
DE
  0
TEXT
  8
1
  6
CONTINUOUS
 62
     3
  5
DF
 10
711483.56
 20
5095493.75
 30
0.0
 40
12.5
  1
026
  7
ROMANS
 72
     4
 11
711500.0
 21
5095500.0
 31
0.0
210
0.0
220
0.0
230
1.0
  0
POLYLINE
  8
1
  6
CONTINUOUS
 62
     3
  5
E0
 66
     1
 10
0.0
 20
0.0
 30
0.0
 70
     1
210
0.0
220
0.0
230
1.0
  0
VERTEX
  8
1
  6
CONTINUOUS
 62
     3
  5
E1
 10
712000.0
 20
5094000.0
 30
0.0
  0
VERTEX
  8
1
  6
CONTINUOUS
 62
     3
  5
E2
 10
712000.0
 20
5095000.0
 30
0.0
  0
VERTEX
  8
1
  6
CONTINUOUS
 62
     3
  5
E3
 10
713000.0
 20
5095000.0
 30
0.0
  0
VERTEX
  8
1
  6
CONTINUOUS
 62
     3
  5
E4
 10
713000.0
 20
5094000.0
 30
0.0
  0
SEQEND
  8
1
  6
CONTINUOUS
 62
     3
  5
E5
  0
TEXT
  8
1
  6
CONTINUOUS
 62
     3
  5
E6
 10
712483.86
 20
5094493.75
 30
0.0
 40
12.5
  1
027
  7
ROMANS
 72
     4
 11
712500.0
 21
5094500.0
 31
0.0
210
0.0
220
0.0
230
1.0
  0
POLYLINE
  8
1
  6
CONTINUOUS
 62
     3
  5
E7
 66
     1
 10
0.0
 20
0.0
 30
0.0
 70
     1
210
0.0
220
0.0
230
1.0
  0
VERTEX
  8
1
  6
CONTINUOUS
 62
     3
  5
E8
 10
712000.0
 20
5095000.0
 30
0.0
  0
VERTEX
  8
1
  6
CONTINUOUS
 62
     3
  5
E9
 10
712000.0
 20
5096000.0
 30
0.0
  0
VERTEX
  8
1
  6
CONTINUOUS
 62
     3
  5
EA
 10
713000.0
 20
5096000.0
 30
0.0
  0
VERTEX
  8
1
  6
CONTINUOUS
 62
     3
  5
EB
 10
713000.0
 20
5095000.0
 30
0.0
  0
SEQEND
  8
1
  6
CONTINUOUS
 62
     3
  5
EC
  0
TEXT
  8
1
  6
CONTINUOUS
 62
     3
  5
ED
 10
712483.86
 20
5095493.75
 30
0.0
 40
12.5
  1
028
  7
ROMANS
 72
     4
 11
712500.0
 21
5095500.0
 31
0.0
210
0.0
220
0.0
230
1.0
  0
POLYLINE
  8
1
  6
CONTINUOUS
 62
     3
  5
EE
 66
     1
 10
0.0
 20
0.0
 30
0.0
 70
     1
210
0.0
220
0.0
230
1.0
  0
VERTEX
  8
1
  6
CONTINUOUS
 62
     3
  5
EF
 10
713000.0
 20
5095000.0
 30
0.0
  0
VERTEX
  8
1
  6
CONTINUOUS
 62
     3
  5
F0
 10
713000.0
 20
5096000.0
 30
0.0
  0
VERTEX
  8
1
  6
CONTINUOUS
 62
     3
  5
F1
 10
714000.0
 20
5096000.0
 30
0.0
  0
VERTEX
  8
1
  6
CONTINUOUS
 62
     3
  5
F2
 10
714000.0
 20
5095000.0
 30
0.0
  0
SEQEND
  8
1
  6
CONTINUOUS
 62
     3
  5
F3
  0
TEXT
  8
1
  6
CONTINUOUS
 62
     3
  5
F4
 10
713483.86
 20
5095493.75
 30
0.0
 40
12.5
  1
029
  7
ROMANS
 72
     4
 11
713500.0
 21
5095500.0
 31
0.0
210
0.0
220
0.0
230
1.0
  0
POLYLINE
  8
1
  6
CONTINUOUS
 62
     3
  5
F5
 66
     1
 10
0.0
 20
0.0
 30
0.0
 70
     1
210
0.0
220
0.0
230
1.0
  0
VERTEX
  8
1
  6
CONTINUOUS
 62
     3
  5
F6
 10
713000.0
 20
5094000.0
 30
0.0
  0
VERTEX
  8
1
  6
CONTINUOUS
 62
     3
  5
F7
 10
713000.0
 20
5095000.0
 30
0.0
  0
VERTEX
  8
1
  6
CONTINUOUS
 62
     3
  5
F8
 10
714000.0
 20
5095000.0
 30
0.0
  0
VERTEX
  8
1
  6
CONTINUOUS
 62
     3
  5
F9
 10
714000.0
 20
5094000.0
 30
0.0
  0
SEQEND
  8
1
  6
CONTINUOUS
 62
     3
  5
FA
  0
TEXT
  8
1
  6
CONTINUOUS
 62
     3
  5
FB
 10
713483.36
 20
5094493.75
 30
0.0
 40
12.5
  1
030
  7
ROMANS
 72
     4
 11
713500.0
 21
5094500.0
 31
0.0
210
0.0
220
0.0
230
1.0
  0
POLYLINE
  8
1
  6
CONTINUOUS
 62
     3
  5
FC
 66
     1
 10
0.0
 20
0.0
 30
0.0
 70
     1
210
0.0
220
0.0
230
1.0
  0
VERTEX
  8
1
  6
CONTINUOUS
 62
     3
  5
FD
 10
714000.0
 20
5094000.0
 30
0.0
  0
VERTEX
  8
1
  6
CONTINUOUS
 62
     3
  5
FE
 10
714000.0
 20
5095000.0
 30
0.0
  0
VERTEX
  8
1
  6
CONTINUOUS
 62
     3
  5
FF
 10
715000.0
 20
5095000.0
 30
0.0
  0
VERTEX
  8
1
  6
CONTINUOUS
 62
     3
  5
100
 10
715000.0
 20
5094000.0
 30
0.0
  0
SEQEND
  8
1
  6
CONTINUOUS
 62
     3
  5
101
  0
TEXT
  8
1
  6
CONTINUOUS
 62
     3
  5
102
 10
714485.42
 20
5094493.75
 30
0.0
 40
12.5
  1
031
  7
ROMANS
 72
     4
 11
714500.0
 21
5094500.0
 31
0.0
210
0.0
220
0.0
230
1.0
  0
POLYLINE
  8
1
  6
CONTINUOUS
 62
     3
  5
103
 66
     1
 10
0.0
 20
0.0
 30
0.0
 70
     1
210
0.0
220
0.0
230
1.0
  0
VERTEX
  8
1
  6
CONTINUOUS
 62
     3
  5
104
 10
714000.0
 20
5095000.0
 30
0.0
  0
VERTEX
  8
1
  6
CONTINUOUS
 62
     3
  5
105
 10
714000.0
 20
5096000.0
 30
0.0
  0
VERTEX
  8
1
  6
CONTINUOUS
 62
     3
  5
106
 10
715000.0
 20
5096000.0
 30
0.0
  0
VERTEX
  8
1
  6
CONTINUOUS
 62
     3
  5
107
 10
715000.0
 20
5095000.0
 30
0.0
  0
SEQEND
  8
1
  6
CONTINUOUS
 62
     3
  5
108
  0
TEXT
  8
1
  6
CONTINUOUS
 62
     3
  5
109
 10
714483.86
 20
5095493.75
 30
0.0
 40
12.5
  1
032
  7
ROMANS
 72
     4
 11
714500.0
 21
5095500.0
 31
0.0
210
0.0
220
0.0
230
1.0
  0
POLYLINE
  8
1
  6
CONTINUOUS
 62
     3
  5
10A
 66
     1
 10
0.0
 20
0.0
 30
0.0
 70
     1
210
0.0
220
0.0
230
1.0
  0
VERTEX
  8
1
  6
CONTINUOUS
 62
     3
  5
10B
 10
715000.0
 20
5094000.0
 30
0.0
  0
VERTEX
  8
1
  6
CONTINUOUS
 62
     3
  5
10C
 10
715000.0
 20
5095000.0
 30
0.0
  0
VERTEX
  8
1
  6
CONTINUOUS
 62
     3
  5
10D
 10
716000.0
 20
5095000.0
 30
0.0
  0
VERTEX
  8
1
  6
CONTINUOUS
 62
     3
  5
10E
 10
716000.0
 20
5094000.0
 30
0.0
  0
SEQEND
  8
1
  6
CONTINUOUS
 62
     3
  5
10F
  0
TEXT
  8
1
  6
CONTINUOUS
 62
     3
  5
110
 10
715483.86
 20
5094493.75
 30
0.0
 40
12.5
  1
033
  7
ROMANS
 72
     4
 11
715500.0
 21
5094500.0
 31
0.0
210
0.0
220
0.0
230
1.0
  0
POLYLINE
  8
1
  6
CONTINUOUS
 62
     3
  5
111
 66
     1
 10
0.0
 20
0.0
 30
0.0
 70
     1
210
0.0
220
0.0
230
1.0
  0
VERTEX
  8
1
  6
CONTINUOUS
 62
     3
  5
112
 10
715000.0
 20
5095000.0
 30
0.0
  0
VERTEX
  8
1
  6
CONTINUOUS
 62
     3
  5
113
 10
715000.0
 20
5096000.0
 30
0.0
  0
VERTEX
  8
1
  6
CONTINUOUS
 62
     3
  5
114
 10
716000.0
 20
5096000.0
 30
0.0
  0
VERTEX
  8
1
  6
CONTINUOUS
 62
     3
  5
115
 10
716000.0
 20
5095000.0
 30
0.0
  0
SEQEND
  8
1
  6
CONTINUOUS
 62
     3
  5
116
  0
TEXT
  8
1
  6
CONTINUOUS
 62
     3
  5
117
 10
715483.86
 20
5095493.75
 30
0.0
 40
12.5
  1
034
  7
ROMANS
 72
     4
 11
715500.0
 21
5095500.0
 31
0.0
210
0.0
220
0.0
230
1.0
  0
POLYLINE
  8
1
  6
CONTINUOUS
 62
     3
  5
118
 66
     1
 10
0.0
 20
0.0
 30
0.0
 70
     1
210
0.0
220
0.0
230
1.0
  0
VERTEX
  8
1
  6
CONTINUOUS
 62
     3
  5
119
 10
718000.0
 20
5095000.0
 30
0.0
  0
VERTEX
  8
1
  6
CONTINUOUS
 62
     3
  5
11A
 10
718000.0
 20
5096000.0
 30
0.0
  0
VERTEX
  8
1
  6
CONTINUOUS
 62
     3
  5
11B
 10
719000.0
 20
5096000.0
 30
0.0
  0
VERTEX
  8
1
  6
CONTINUOUS
 62
     3
  5
11C
 10
719000.0
 20
5095000.0
 30
0.0
  0
SEQEND
  8
1
  6
CONTINUOUS
 62
     3
  5
11D
  0
TEXT
  8
1
  6
CONTINUOUS
 62
     3
  5
11E
 10
718483.84
 20
5095493.75
 30
0.0
 40
12.5
  1
035
  7
ROMANS
 72
     4
 11
718500.0
 21
5095500.0
 31
0.0
210
0.0
220
0.0
230
1.0
  0
POLYLINE
  8
1
  6
CONTINUOUS
 62
     3
  5
11F
 66
     1
 10
0.0
 20
0.0
 30
0.0
 70
     1
210
0.0
220
0.0
230
1.0
  0
VERTEX
  8
1
  6
CONTINUOUS
 62
     3
  5
120
 10
718000.0
 20
5094000.0
 30
0.0
  0
VERTEX
  8
1
  6
CONTINUOUS
 62
     3
  5
121
 10
718000.0
 20
5095000.0
 30
0.0
  0
VERTEX
  8
1
  6
CONTINUOUS
 62
     3
  5
122
 10
719000.0
 20
5095000.0
 30
0.0
  0
VERTEX
  8
1
  6
CONTINUOUS
 62
     3
  5
123
 10
719000.0
 20
5094000.0
 30
0.0
  0
SEQEND
  8
1
  6
CONTINUOUS
 62
     3
  5
124
  0
TEXT
  8
1
  6
CONTINUOUS
 62
     3
  5
125
 10
718483.56
 20
5094493.75
 30
0.0
 40
12.5
  1
036
  7
ROMANS
 72
     4
 11
718500.0
 21
5094500.0
 31
0.0
210
0.0
220
0.0
230
1.0
  0
POLYLINE
  8
1
  6
CONTINUOUS
 62
     3
  5
126
 66
     1
 10
0.0
 20
0.0
 30
0.0
 70
     1
210
0.0
220
0.0
230
1.0
  0
VERTEX
  8
1
  6
CONTINUOUS
 62
     3
  5
127
 10
717000.0
 20
5095000.0
 30
0.0
  0
VERTEX
  8
1
  6
CONTINUOUS
 62
     3
  5
128
 10
717000.0
 20
5096000.0
 30
0.0
  0
VERTEX
  8
1
  6
CONTINUOUS
 62
     3
  5
129
 10
718000.0
 20
5096000.0
 30
0.0
  0
VERTEX
  8
1
  6
CONTINUOUS
 62
     3
  5
12A
 10
718000.0
 20
5095000.0
 30
0.0
  0
SEQEND
  8
1
  6
CONTINUOUS
 62
     3
  5
12B
  0
TEXT
  8
1
  6
CONTINUOUS
 62
     3
  5
12C
 10
717483.86
 20
5095493.75
 30
0.0
 40
12.5
  1
037
  7
ROMANS
 72
     4
 11
717500.0
 21
5095500.0
 31
0.0
210
0.0
220
0.0
230
1.0
  0
POLYLINE
  8
1
  6
CONTINUOUS
 62
     3
  5
12D
 66
     1
 10
0.0
 20
0.0
 30
0.0
 70
     1
210
0.0
220
0.0
230
1.0
  0
VERTEX
  8
1
  6
CONTINUOUS
 62
     3
  5
12E
 10
717000.0
 20
5094000.0
 30
0.0
  0
VERTEX
  8
1
  6
CONTINUOUS
 62
     3
  5
12F
 10
717000.0
 20
5095000.0
 30
0.0
  0
VERTEX
  8
1
  6
CONTINUOUS
 62
     3
  5
130
 10
718000.0
 20
5095000.0
 30
0.0
  0
VERTEX
  8
1
  6
CONTINUOUS
 62
     3
  5
131
 10
718000.0
 20
5094000.0
 30
0.0
  0
SEQEND
  8
1
  6
CONTINUOUS
 62
     3
  5
132
  0
TEXT
  8
1
  6
CONTINUOUS
 62
     3
  5
133
 10
717483.86
 20
5094493.75
 30
0.0
 40
12.5
  1
038
  7
ROMANS
 72
     4
 11
717500.0
 21
5094500.0
 31
0.0
210
0.0
220
0.0
230
1.0
  0
POLYLINE
  8
1
  6
CONTINUOUS
 62
     3
  5
134
 66
     1
 10
0.0
 20
0.0
 30
0.0
 70
     1
210
0.0
220
0.0
230
1.0
  0
VERTEX
  8
1
  6
CONTINUOUS
 62
     3
  5
135
 10
716000.0
 20
5095000.0
 30
0.0
  0
VERTEX
  8
1
  6
CONTINUOUS
 62
     3
  5
136
 10
716000.0
 20
5096000.0
 30
0.0
  0
VERTEX
  8
1
  6
CONTINUOUS
 62
     3
  5
137
 10
717000.0
 20
5096000.0
 30
0.0
  0
VERTEX
  8
1
  6
CONTINUOUS
 62
     3
  5
138
 10
717000.0
 20
5095000.0
 30
0.0
  0
SEQEND
  8
1
  6
CONTINUOUS
 62
     3
  5
139
  0
TEXT
  8
1
  6
CONTINUOUS
 62
     3
  5
13A
 10
716483.86
 20
5095493.75
 30
0.0
 40
12.5
  1
039
  7
ROMANS
 72
     4
 11
716500.0
 21
5095500.0
 31
0.0
210
0.0
220
0.0
230
1.0
  0
POLYLINE
  8
1
  6
CONTINUOUS
 62
     3
  5
13B
 66
     1
 10
0.0
 20
0.0
 30
0.0
 70
     1
210
0.0
220
0.0
230
1.0
  0
VERTEX
  8
1
  6
CONTINUOUS
 62
     3
  5
13C
 10
716000.0
 20
5094000.0
 30
0.0
  0
VERTEX
  8
1
  6
CONTINUOUS
 62
     3
  5
13D
 10
716000.0
 20
5095000.0
 30
0.0
  0
VERTEX
  8
1
  6
CONTINUOUS
 62
     3
  5
13E
 10
717000.0
 20
5095000.0
 30
0.0
  0
VERTEX
  8
1
  6
CONTINUOUS
 62
     3
  5
13F
 10
717000.0
 20
5094000.0
 30
0.0
  0
SEQEND
  8
1
  6
CONTINUOUS
 62
     3
  5
140
  0
TEXT
  8
1
  6
CONTINUOUS
 62
     3
  5
141
 10
716483.36
 20
5094493.75
 30
0.0
 40
12.5
  1
040
  7
ROMANS
 72
     4
 11
716500.0
 21
5094500.0
 31
0.0
210
0.0
220
0.0
230
1.0
  0
POLYLINE
  8
1
  6
CONTINUOUS
 62
     3
  5
142
 66
     1
 10
0.0
 20
0.0
 30
0.0
 70
     1
210
0.0
220
0.0
230
1.0
  0
VERTEX
  8
1
  6
CONTINUOUS
 62
     3
  5
143
 10
710000.0
 20
5093000.0
 30
0.0
  0
VERTEX
  8
1
  6
CONTINUOUS
 62
     3
  5
144
 10
710000.0
 20
5094000.0
 30
0.0
  0
VERTEX
  8
1
  6
CONTINUOUS
 62
     3
  5
145
 10
711000.0
 20
5094000.0
 30
0.0
  0
VERTEX
  8
1
  6
CONTINUOUS
 62
     3
  5
146
 10
711000.0
 20
5093000.0
 30
0.0
  0
SEQEND
  8
1
  6
CONTINUOUS
 62
     3
  5
147
  0
TEXT
  8
1
  6
CONTINUOUS
 62
     3
  5
148
 10
710485.42
 20
5093493.75
 30
0.0
 40
12.5
  1
041
  7
ROMANS
 72
     4
 11
710500.0
 21
5093500.0
 31
0.0
210
0.0
220
0.0
230
1.0
  0
POLYLINE
  8
1
  6
CONTINUOUS
 62
     3
  5
149
 66
     1
 10
0.0
 20
0.0
 30
0.0
 70
     1
210
0.0
220
0.0
230
1.0
  0
VERTEX
  8
1
  6
CONTINUOUS
 62
     3
  5
14A
 10
709000.0
 20
5093000.0
 30
0.0
  0
VERTEX
  8
1
  6
CONTINUOUS
 62
     3
  5
14B
 10
709000.0
 20
5094000.0
 30
0.0
  0
VERTEX
  8
1
  6
CONTINUOUS
 62
     3
  5
14C
 10
710000.0
 20
5094000.0
 30
0.0
  0
VERTEX
  8
1
  6
CONTINUOUS
 62
     3
  5
14D
 10
710000.0
 20
5093000.0
 30
0.0
  0
SEQEND
  8
1
  6
CONTINUOUS
 62
     3
  5
14E
  0
TEXT
  8
1
  6
CONTINUOUS
 62
     3
  5
14F
 10
709483.86
 20
5093493.75
 30
0.0
 40
12.5
  1
042
  7
ROMANS
 72
     4
 11
709500.0
 21
5093500.0
 31
0.0
210
0.0
220
0.0
230
1.0
  0
POLYLINE
  8
1
  6
CONTINUOUS
 62
     3
  5
150
 66
     1
 10
0.0
 20
0.0
 30
0.0
 70
     1
210
0.0
220
0.0
230
1.0
  0
VERTEX
  8
1
  6
CONTINUOUS
 62
     3
  5
151
 10
708000.0
 20
5093000.0
 30
0.0
  0
VERTEX
  8
1
  6
CONTINUOUS
 62
     3
  5
152
 10
708000.0
 20
5094000.0
 30
0.0
  0
VERTEX
  8
1
  6
CONTINUOUS
 62
     3
  5
153
 10
709000.0
 20
5094000.0
 30
0.0
  0
VERTEX
  8
1
  6
CONTINUOUS
 62
     3
  5
154
 10
709000.0
 20
5093000.0
 30
0.0
  0
SEQEND
  8
1
  6
CONTINUOUS
 62
     3
  5
155
  0
TEXT
  8
1
  6
CONTINUOUS
 62
     3
  5
156
 10
708483.86
 20
5093493.75
 30
0.0
 40
12.5
  1
043
  7
ROMANS
 72
     4
 11
708500.0
 21
5093500.0
 31
0.0
210
0.0
220
0.0
230
1.0
  0
POLYLINE
  8
1
  6
CONTINUOUS
 62
     3
  5
157
 66
     1
 10
0.0
 20
0.0
 30
0.0
 70
     1
210
0.0
220
0.0
230
1.0
  0
VERTEX
  8
1
  6
CONTINUOUS
 62
     3
  5
158
 10
707000.0
 20
5093000.0
 30
0.0
  0
VERTEX
  8
1
  6
CONTINUOUS
 62
     3
  5
159
 10
707000.0
 20
5094000.0
 30
0.0
  0
VERTEX
  8
1
  6
CONTINUOUS
 62
     3
  5
15A
 10
708000.0
 20
5094000.0
 30
0.0
  0
VERTEX
  8
1
  6
CONTINUOUS
 62
     3
  5
15B
 10
708000.0
 20
5093000.0
 30
0.0
  0
SEQEND
  8
1
  6
CONTINUOUS
 62
     3
  5
15C
  0
TEXT
  8
1
  6
CONTINUOUS
 62
     3
  5
15D
 10
707483.86
 20
5093493.75
 30
0.0
 40
12.5
  1
044
  7
ROMANS
 72
     4
 11
707500.0
 21
5093500.0
 31
0.0
210
0.0
220
0.0
230
1.0
  0
POLYLINE
  8
1
  6
CONTINUOUS
 62
     3
  5
15E
 66
     1
 10
0.0
 20
0.0
 30
0.0
 70
     1
210
0.0
220
0.0
230
1.0
  0
VERTEX
  8
1
  6
CONTINUOUS
 62
     3
  5
15F
 10
703000.0
 20
5094000.0
 30
0.0
  0
VERTEX
  8
1
  6
CONTINUOUS
 62
     3
  5
160
 10
703000.0
 20
5095000.0
 30
0.0
  0
VERTEX
  8
1
  6
CONTINUOUS
 62
     3
  5
161
 10
704000.0
 20
5095000.0
 30
0.0
  0
VERTEX
  8
1
  6
CONTINUOUS
 62
     3
  5
162
 10
704000.0
 20
5094000.0
 30
0.0
  0
SEQEND
  8
1
  6
CONTINUOUS
 62
     3
  5
163
  0
TEXT
  8
1
  6
CONTINUOUS
 62
     3
  5
164
 10
703483.84
 20
5094493.75
 30
0.0
 40
12.5
  1
045
  7
ROMANS
 72
     4
 11
703500.0
 21
5094500.0
 31
0.0
210
0.0
220
0.0
230
1.0
  0
POLYLINE
  8
1
  6
CONTINUOUS
 62
     3
  5
165
 66
     1
 10
0.0
 20
0.0
 30
0.0
 70
     1
210
0.0
220
0.0
230
1.0
  0
VERTEX
  8
1
  6
CONTINUOUS
 62
     3
  5
166
 10
703000.0
 20
5093000.0
 30
0.0
  0
VERTEX
  8
1
  6
CONTINUOUS
 62
     3
  5
167
 10
703000.0
 20
5094000.0
 30
0.0
  0
VERTEX
  8
1
  6
CONTINUOUS
 62
     3
  5
168
 10
704000.0
 20
5094000.0
 30
0.0
  0
VERTEX
  8
1
  6
CONTINUOUS
 62
     3
  5
169
 10
704000.0
 20
5093000.0
 30
0.0
  0
SEQEND
  8
1
  6
CONTINUOUS
 62
     3
  5
16A
  0
TEXT
  8
1
  6
CONTINUOUS
 62
     3
  5
16B
 10
703483.56
 20
5093493.75
 30
0.0
 40
12.5
  1
046
  7
ROMANS
 72
     4
 11
703500.0
 21
5093500.0
 31
0.0
210
0.0
220
0.0
230
1.0
  0
POLYLINE
  8
1
  6
CONTINUOUS
 62
     3
  5
16C
 66
     1
 10
0.0
 20
0.0
 30
0.0
 70
     1
210
0.0
220
0.0
230
1.0
  0
VERTEX
  8
1
  6
CONTINUOUS
 62
     3
  5
16D
 10
704000.0
 20
5093000.0
 30
0.0
  0
VERTEX
  8
1
  6
CONTINUOUS
 62
     3
  5
16E
 10
704000.0
 20
5094000.0
 30
0.0
  0
VERTEX
  8
1
  6
CONTINUOUS
 62
     3
  5
16F
 10
705000.0
 20
5094000.0
 30
0.0
  0
VERTEX
  8
1
  6
CONTINUOUS
 62
     3
  5
170
 10
705000.0
 20
5093000.0
 30
0.0
  0
SEQEND
  8
1
  6
CONTINUOUS
 62
     3
  5
171
  0
TEXT
  8
1
  6
CONTINUOUS
 62
     3
  5
172
 10
704483.86
 20
5093493.75
 30
0.0
 40
12.5
  1
047
  7
ROMANS
 72
     4
 11
704500.0
 21
5093500.0
 31
0.0
210
0.0
220
0.0
230
1.0
  0
POLYLINE
  8
1
  6
CONTINUOUS
 62
     3
  5
173
 66
     1
 10
0.0
 20
0.0
 30
0.0
 70
     1
210
0.0
220
0.0
230
1.0
  0
VERTEX
  8
1
  6
CONTINUOUS
 62
     3
  5
174
 10
705000.0
 20
5093000.0
 30
0.0
  0
VERTEX
  8
1
  6
CONTINUOUS
 62
     3
  5
175
 10
705000.0
 20
5094000.0
 30
0.0
  0
VERTEX
  8
1
  6
CONTINUOUS
 62
     3
  5
176
 10
706000.0
 20
5094000.0
 30
0.0
  0
VERTEX
  8
1
  6
CONTINUOUS
 62
     3
  5
177
 10
706000.0
 20
5093000.0
 30
0.0
  0
SEQEND
  8
1
  6
CONTINUOUS
 62
     3
  5
178
  0
TEXT
  8
1
  6
CONTINUOUS
 62
     3
  5
179
 10
705483.86
 20
5093493.75
 30
0.0
 40
12.5
  1
048
  7
ROMANS
 72
     4
 11
705500.0
 21
5093500.0
 31
0.0
210
0.0
220
0.0
230
1.0
  0
POLYLINE
  8
1
  6
CONTINUOUS
 62
     3
  5
17A
 66
     1
 10
0.0
 20
0.0
 30
0.0
 70
     1
210
0.0
220
0.0
230
1.0
  0
VERTEX
  8
1
  6
CONTINUOUS
 62
     3
  5
17B
 10
706000.0
 20
5093000.0
 30
0.0
  0
VERTEX
  8
1
  6
CONTINUOUS
 62
     3
  5
17C
 10
706000.0
 20
5094000.0
 30
0.0
  0
VERTEX
  8
1
  6
CONTINUOUS
 62
     3
  5
17D
 10
707000.0
 20
5094000.0
 30
0.0
  0
VERTEX
  8
1
  6
CONTINUOUS
 62
     3
  5
17E
 10
707000.0
 20
5093000.0
 30
0.0
  0
SEQEND
  8
1
  6
CONTINUOUS
 62
     3
  5
17F
  0
TEXT
  8
1
  6
CONTINUOUS
 62
     3
  5
180
 10
706483.86
 20
5093493.75
 30
0.0
 40
12.5
  1
049
  7
ROMANS
 72
     4
 11
706500.0
 21
5093500.0
 31
0.0
210
0.0
220
0.0
230
1.0
  0
POLYLINE
  8
1
  6
CONTINUOUS
 62
     3
  5
181
 66
     1
 10
0.0
 20
0.0
 30
0.0
 70
     1
210
0.0
220
0.0
230
1.0
  0
VERTEX
  8
1
  6
CONTINUOUS
 62
     3
  5
182
 10
711000.0
 20
5093000.0
 30
0.0
  0
VERTEX
  8
1
  6
CONTINUOUS
 62
     3
  5
183
 10
711000.0
 20
5094000.0
 30
0.0
  0
VERTEX
  8
1
  6
CONTINUOUS
 62
     3
  5
184
 10
712000.0
 20
5094000.0
 30
0.0
  0
VERTEX
  8
1
  6
CONTINUOUS
 62
     3
  5
185
 10
712000.0
 20
5093000.0
 30
0.0
  0
SEQEND
  8
1
  6
CONTINUOUS
 62
     3
  5
186
  0
TEXT
  8
1
  6
CONTINUOUS
 62
     3
  5
187
 10
711483.36
 20
5093493.75
 30
0.0
 40
12.5
  1
050
  7
ROMANS
 72
     4
 11
711500.0
 21
5093500.0
 31
0.0
210
0.0
220
0.0
230
1.0
  0
POLYLINE
  8
1
  6
CONTINUOUS
 62
     3
  5
188
 66
     1
 10
0.0
 20
0.0
 30
0.0
 70
     1
210
0.0
220
0.0
230
1.0
  0
VERTEX
  8
1
  6
CONTINUOUS
 62
     3
  5
189
 10
712000.0
 20
5093000.0
 30
0.0
  0
VERTEX
  8
1
  6
CONTINUOUS
 62
     3
  5
18A
 10
712000.0
 20
5094000.0
 30
0.0
  0
VERTEX
  8
1
  6
CONTINUOUS
 62
     3
  5
18B
 10
713000.0
 20
5094000.0
 30
0.0
  0
VERTEX
  8
1
  6
CONTINUOUS
 62
     3
  5
18C
 10
713000.0
 20
5093000.0
 30
0.0
  0
SEQEND
  8
1
  6
CONTINUOUS
 62
     3
  5
18D
  0
TEXT
  8
1
  6
CONTINUOUS
 62
     3
  5
18E
 10
712485.42
 20
5093493.75
 30
0.0
 40
12.5
  1
051
  7
ROMANS
 72
     4
 11
712500.0
 21
5093500.0
 31
0.0
210
0.0
220
0.0
230
1.0
  0
POLYLINE
  8
1
  6
CONTINUOUS
 62
     3
  5
18F
 66
     1
 10
0.0
 20
0.0
 30
0.0
 70
     1
210
0.0
220
0.0
230
1.0
  0
VERTEX
  8
1
  6
CONTINUOUS
 62
     3
  5
190
 10
713000.0
 20
5093000.0
 30
0.0
  0
VERTEX
  8
1
  6
CONTINUOUS
 62
     3
  5
191
 10
713000.0
 20
5094000.0
 30
0.0
  0
VERTEX
  8
1
  6
CONTINUOUS
 62
     3
  5
192
 10
714000.0
 20
5094000.0
 30
0.0
  0
VERTEX
  8
1
  6
CONTINUOUS
 62
     3
  5
193
 10
714000.0
 20
5093000.0
 30
0.0
  0
SEQEND
  8
1
  6
CONTINUOUS
 62
     3
  5
194
  0
TEXT
  8
1
  6
CONTINUOUS
 62
     3
  5
195
 10
713483.86
 20
5093493.75
 30
0.0
 40
12.5
  1
052
  7
ROMANS
 72
     4
 11
713500.0
 21
5093500.0
 31
0.0
210
0.0
220
0.0
230
1.0
  0
POLYLINE
  8
1
  6
CONTINUOUS
 62
     3
  5
196
 66
     1
 10
0.0
 20
0.0
 30
0.0
 70
     1
210
0.0
220
0.0
230
1.0
  0
VERTEX
  8
1
  6
CONTINUOUS
 62
     3
  5
197
 10
714000.0
 20
5093000.0
 30
0.0
  0
VERTEX
  8
1
  6
CONTINUOUS
 62
     3
  5
198
 10
714000.0
 20
5094000.0
 30
0.0
  0
VERTEX
  8
1
  6
CONTINUOUS
 62
     3
  5
199
 10
715000.0
 20
5094000.0
 30
0.0
  0
VERTEX
  8
1
  6
CONTINUOUS
 62
     3
  5
19A
 10
715000.0
 20
5093000.0
 30
0.0
  0
SEQEND
  8
1
  6
CONTINUOUS
 62
     3
  5
19B
  0
TEXT
  8
1
  6
CONTINUOUS
 62
     3
  5
19C
 10
714483.86
 20
5093493.75
 30
0.0
 40
12.5
  1
053
  7
ROMANS
 72
     4
 11
714500.0
 21
5093500.0
 31
0.0
210
0.0
220
0.0
230
1.0
  0
POLYLINE
  8
1
  6
CONTINUOUS
 62
     3
  5
19D
 66
     1
 10
0.0
 20
0.0
 30
0.0
 70
     1
210
0.0
220
0.0
230
1.0
  0
VERTEX
  8
1
  6
CONTINUOUS
 62
     3
  5
19E
 10
715000.0
 20
5093000.0
 30
0.0
  0
VERTEX
  8
1
  6
CONTINUOUS
 62
     3
  5
19F
 10
715000.0
 20
5094000.0
 30
0.0
  0
VERTEX
  8
1
  6
CONTINUOUS
 62
     3
  5
1A0
 10
716000.0
 20
5094000.0
 30
0.0
  0
VERTEX
  8
1
  6
CONTINUOUS
 62
     3
  5
1A1
 10
716000.0
 20
5093000.0
 30
0.0
  0
SEQEND
  8
1
  6
CONTINUOUS
 62
     3
  5
1A2
  0
TEXT
  8
1
  6
CONTINUOUS
 62
     3
  5
1A3
 10
715483.86
 20
5093493.75
 30
0.0
 40
12.5
  1
054
  7
ROMANS
 72
     4
 11
715500.0
 21
5093500.0
 31
0.0
210
0.0
220
0.0
230
1.0
  0
POLYLINE
  8
1
  6
CONTINUOUS
 62
     3
  5
1A4
 66
     1
 10
0.0
 20
0.0
 30
0.0
 70
     1
210
0.0
220
0.0
230
1.0
  0
VERTEX
  8
1
  6
CONTINUOUS
 62
     3
  5
1A5
 10
718000.0
 20
5093000.0
 30
0.0
  0
VERTEX
  8
1
  6
CONTINUOUS
 62
     3
  5
1A6
 10
718000.0
 20
5094000.0
 30
0.0
  0
VERTEX
  8
1
  6
CONTINUOUS
 62
     3
  5
1A7
 10
719000.0
 20
5094000.0
 30
0.0
  0
VERTEX
  8
1
  6
CONTINUOUS
 62
     3
  5
1A8
 10
719000.0
 20
5093000.0
 30
0.0
  0
SEQEND
  8
1
  6
CONTINUOUS
 62
     3
  5
1A9
  0
TEXT
  8
1
  6
CONTINUOUS
 62
     3
  5
1AA
 10
718483.84
 20
5093493.75
 30
0.0
 40
12.5
  1
055
  7
ROMANS
 72
     4
 11
718500.0
 21
5093500.0
 31
0.0
210
0.0
220
0.0
230
1.0
  0
POLYLINE
  8
1
  6
CONTINUOUS
 62
     3
  5
1AB
 66
     1
 10
0.0
 20
0.0
 30
0.0
 70
     1
210
0.0
220
0.0
230
1.0
  0
VERTEX
  8
1
  6
CONTINUOUS
 62
     3
  5
1AC
 10
717000.0
 20
5093000.0
 30
0.0
  0
VERTEX
  8
1
  6
CONTINUOUS
 62
     3
  5
1AD
 10
717000.0
 20
5094000.0
 30
0.0
  0
VERTEX
  8
1
  6
CONTINUOUS
 62
     3
  5
1AE
 10
718000.0
 20
5094000.0
 30
0.0
  0
VERTEX
  8
1
  6
CONTINUOUS
 62
     3
  5
1AF
 10
718000.0
 20
5093000.0
 30
0.0
  0
SEQEND
  8
1
  6
CONTINUOUS
 62
     3
  5
1B0
  0
TEXT
  8
1
  6
CONTINUOUS
 62
     3
  5
1B1
 10
717483.56
 20
5093493.75
 30
0.0
 40
12.5
  1
056
  7
ROMANS
 72
     4
 11
717500.0
 21
5093500.0
 31
0.0
210
0.0
220
0.0
230
1.0
  0
POLYLINE
  8
1
  6
CONTINUOUS
 62
     3
  5
1B2
 66
     1
 10
0.0
 20
0.0
 30
0.0
 70
     1
210
0.0
220
0.0
230
1.0
  0
VERTEX
  8
1
  6
CONTINUOUS
 62
     3
  5
1B3
 10
716000.0
 20
5093000.0
 30
0.0
  0
VERTEX
  8
1
  6
CONTINUOUS
 62
     3
  5
1B4
 10
716000.0
 20
5094000.0
 30
0.0
  0
VERTEX
  8
1
  6
CONTINUOUS
 62
     3
  5
1B5
 10
717000.0
 20
5094000.0
 30
0.0
  0
VERTEX
  8
1
  6
CONTINUOUS
 62
     3
  5
1B6
 10
717000.0
 20
5093000.0
 30
0.0
  0
SEQEND
  8
1
  6
CONTINUOUS
 62
     3
  5
1B7
  0
TEXT
  8
1
  6
CONTINUOUS
 62
     3
  5
1B8
 10
716483.86
 20
5093493.75
 30
0.0
 40
12.5
  1
057
  7
ROMANS
 72
     4
 11
716500.0
 21
5093500.0
 31
0.0
210
0.0
220
0.0
230
1.0
  0
POLYLINE
  8
1
  6
CONTINUOUS
 62
     3
  5
1B9
 66
     1
 10
0.0
 20
0.0
 30
0.0
 70
     1
210
0.0
220
0.0
230
1.0
  0
VERTEX
  8
1
  6
CONTINUOUS
 62
     3
  5
1BA
 10
705000.0
 20
5092000.0
 30
0.0
  0
VERTEX
  8
1
  6
CONTINUOUS
 62
     3
  5
1BB
 10
705000.0
 20
5093000.0
 30
0.0
  0
VERTEX
  8
1
  6
CONTINUOUS
 62
     3
  5
1BC
 10
706000.0
 20
5093000.0
 30
0.0
  0
VERTEX
  8
1
  6
CONTINUOUS
 62
     3
  5
1BD
 10
706000.0
 20
5092000.0
 30
0.0
  0
SEQEND
  8
1
  6
CONTINUOUS
 62
     3
  5
1BE
  0
TEXT
  8
1
  6
CONTINUOUS
 62
     3
  5
1BF
 10
705483.86
 20
5092493.75
 30
0.0
 40
12.5
  1
058
  7
ROMANS
 72
     4
 11
705500.0
 21
5092500.0
 31
0.0
210
0.0
220
0.0
230
1.0
  0
POLYLINE
  8
1
  6
CONTINUOUS
 62
     3
  5
1C0
 66
     1
 10
0.0
 20
0.0
 30
0.0
 70
     1
210
0.0
220
0.0
230
1.0
  0
VERTEX
  8
1
  6
CONTINUOUS
 62
     3
  5
1C1
 10
707000.0
 20
5092000.0
 30
0.0
  0
VERTEX
  8
1
  6
CONTINUOUS
 62
     3
  5
1C2
 10
707000.0
 20
5093000.0
 30
0.0
  0
VERTEX
  8
1
  6
CONTINUOUS
 62
     3
  5
1C3
 10
708000.0
 20
5093000.0
 30
0.0
  0
VERTEX
  8
1
  6
CONTINUOUS
 62
     3
  5
1C4
 10
708000.0
 20
5092000.0
 30
0.0
  0
SEQEND
  8
1
  6
CONTINUOUS
 62
     3
  5
1C5
  0
TEXT
  8
1
  6
CONTINUOUS
 62
     3
  5
1C6
 10
707483.86
 20
5092493.75
 30
0.0
 40
12.5
  1
059
  7
ROMANS
 72
     4
 11
707500.0
 21
5092500.0
 31
0.0
210
0.0
220
0.0
230
1.0
  0
POLYLINE
  8
1
  6
CONTINUOUS
 62
     3
  5
1C7
 66
     1
 10
0.0
 20
0.0
 30
0.0
 70
     1
210
0.0
220
0.0
230
1.0
  0
VERTEX
  8
1
  6
CONTINUOUS
 62
     3
  5
1C8
 10
706000.0
 20
5092000.0
 30
0.0
  0
VERTEX
  8
1
  6
CONTINUOUS
 62
     3
  5
1C9
 10
706000.0
 20
5093000.0
 30
0.0
  0
VERTEX
  8
1
  6
CONTINUOUS
 62
     3
  5
1CA
 10
707000.0
 20
5093000.0
 30
0.0
  0
VERTEX
  8
1
  6
CONTINUOUS
 62
     3
  5
1CB
 10
707000.0
 20
5092000.0
 30
0.0
  0
SEQEND
  8
1
  6
CONTINUOUS
 62
     3
  5
1CC
  0
TEXT
  8
1
  6
CONTINUOUS
 62
     3
  5
1CD
 10
706483.36
 20
5092493.75
 30
0.0
 40
12.5
  1
060
  7
ROMANS
 72
     4
 11
706500.0
 21
5092500.0
 31
0.0
210
0.0
220
0.0
230
1.0
  0
POLYLINE
  8
1
  6
CONTINUOUS
 62
     3
  5
1CE
 66
     1
 10
0.0
 20
0.0
 30
0.0
 70
     1
210
0.0
220
0.0
230
1.0
  0
VERTEX
  8
1
  6
CONTINUOUS
 62
     3
  5
1CF
 10
704000.0
 20
5092000.0
 30
0.0
  0
VERTEX
  8
1
  6
CONTINUOUS
 62
     3
  5
1D0
 10
704000.0
 20
5093000.0
 30
0.0
  0
VERTEX
  8
1
  6
CONTINUOUS
 62
     3
  5
1D1
 10
705000.0
 20
5093000.0
 30
0.0
  0
VERTEX
  8
1
  6
CONTINUOUS
 62
     3
  5
1D2
 10
705000.0
 20
5092000.0
 30
0.0
  0
SEQEND
  8
1
  6
CONTINUOUS
 62
     3
  5
1D3
  0
TEXT
  8
1
  6
CONTINUOUS
 62
     3
  5
1D4
 10
704485.42
 20
5092493.75
 30
0.0
 40
12.5
  1
061
  7
ROMANS
 72
     4
 11
704500.0
 21
5092500.0
 31
0.0
210
0.0
220
0.0
230
1.0
  0
POLYLINE
  8
1
  6
CONTINUOUS
 62
     3
  5
1D5
 66
     1
 10
0.0
 20
0.0
 30
0.0
 70
     1
210
0.0
220
0.0
230
1.0
  0
VERTEX
  8
1
  6
CONTINUOUS
 62
     3
  5
1D6
 10
708000.0
 20
5092000.0
 30
0.0
  0
VERTEX
  8
1
  6
CONTINUOUS
 62
     3
  5
1D7
 10
708000.0
 20
5093000.0
 30
0.0
  0
VERTEX
  8
1
  6
CONTINUOUS
 62
     3
  5
1D8
 10
709000.0
 20
5093000.0
 30
0.0
  0
VERTEX
  8
1
  6
CONTINUOUS
 62
     3
  5
1D9
 10
709000.0
 20
5092000.0
 30
0.0
  0
SEQEND
  8
1
  6
CONTINUOUS
 62
     3
  5
1DA
  0
TEXT
  8
1
  6
CONTINUOUS
 62
     3
  5
1DB
 10
708483.86
 20
5092493.75
 30
0.0
 40
12.5
  1
062
  7
ROMANS
 72
     4
 11
708500.0
 21
5092500.0
 31
0.0
210
0.0
220
0.0
230
1.0
  0
POLYLINE
  8
1
  6
CONTINUOUS
 62
     3
  5
1DC
 66
     1
 10
0.0
 20
0.0
 30
0.0
 70
     1
210
0.0
220
0.0
230
1.0
  0
VERTEX
  8
1
  6
CONTINUOUS
 62
     3
  5
1DD
 10
709000.0
 20
5092000.0
 30
0.0
  0
VERTEX
  8
1
  6
CONTINUOUS
 62
     3
  5
1DE
 10
709000.0
 20
5093000.0
 30
0.0
  0
VERTEX
  8
1
  6
CONTINUOUS
 62
     3
  5
1DF
 10
710000.0
 20
5093000.0
 30
0.0
  0
VERTEX
  8
1
  6
CONTINUOUS
 62
     3
  5
1E0
 10
710000.0
 20
5092000.0
 30
0.0
  0
SEQEND
  8
1
  6
CONTINUOUS
 62
     3
  5
1E1
  0
TEXT
  8
1
  6
CONTINUOUS
 62
     3
  5
1E2
 10
709483.86
 20
5092493.75
 30
0.0
 40
12.5
  1
063
  7
ROMANS
 72
     4
 11
709500.0
 21
5092500.0
 31
0.0
210
0.0
220
0.0
230
1.0
  0
POLYLINE
  8
1
  6
CONTINUOUS
 62
     3
  5
1E3
 66
     1
 10
0.0
 20
0.0
 30
0.0
 70
     1
210
0.0
220
0.0
230
1.0
  0
VERTEX
  8
1
  6
CONTINUOUS
 62
     3
  5
1E4
 10
710000.0
 20
5092000.0
 30
0.0
  0
VERTEX
  8
1
  6
CONTINUOUS
 62
     3
  5
1E5
 10
710000.0
 20
5093000.0
 30
0.0
  0
VERTEX
  8
1
  6
CONTINUOUS
 62
     3
  5
1E6
 10
711000.0
 20
5093000.0
 30
0.0
  0
VERTEX
  8
1
  6
CONTINUOUS
 62
     3
  5
1E7
 10
711000.0
 20
5092000.0
 30
0.0
  0
SEQEND
  8
1
  6
CONTINUOUS
 62
     3
  5
1E8
  0
TEXT
  8
1
  6
CONTINUOUS
 62
     3
  5
1E9
 10
710483.86
 20
5092493.75
 30
0.0
 40
12.5
  1
064
  7
ROMANS
 72
     4
 11
710500.0
 21
5092500.0
 31
0.0
210
0.0
220
0.0
230
1.0
  0
POLYLINE
  8
1
  6
CONTINUOUS
 62
     3
  5
1EA
 66
     1
 10
0.0
 20
0.0
 30
0.0
 70
     1
210
0.0
220
0.0
230
1.0
  0
VERTEX
  8
1
  6
CONTINUOUS
 62
     3
  5
1EB
 10
711000.0
 20
5092000.0
 30
0.0
  0
VERTEX
  8
1
  6
CONTINUOUS
 62
     3
  5
1EC
 10
711000.0
 20
5093000.0
 30
0.0
  0
VERTEX
  8
1
  6
CONTINUOUS
 62
     3
  5
1ED
 10
712000.0
 20
5093000.0
 30
0.0
  0
VERTEX
  8
1
  6
CONTINUOUS
 62
     3
  5
1EE
 10
712000.0
 20
5092000.0
 30
0.0
  0
SEQEND
  8
1
  6
CONTINUOUS
 62
     3
  5
1EF
  0
TEXT
  8
1
  6
CONTINUOUS
 62
     3
  5
1F0
 10
711483.84
 20
5092493.75
 30
0.0
 40
12.5
  1
065
  7
ROMANS
 72
     4
 11
711500.0
 21
5092500.0
 31
0.0
210
0.0
220
0.0
230
1.0
  0
POLYLINE
  8
1
  6
CONTINUOUS
 62
     3
  5
1F1
 66
     1
 10
0.0
 20
0.0
 30
0.0
 70
     1
210
0.0
220
0.0
230
1.0
  0
VERTEX
  8
1
  6
CONTINUOUS
 62
     3
  5
1F2
 10
712000.0
 20
5092000.0
 30
0.0
  0
VERTEX
  8
1
  6
CONTINUOUS
 62
     3
  5
1F3
 10
712000.0
 20
5093000.0
 30
0.0
  0
VERTEX
  8
1
  6
CONTINUOUS
 62
     3
  5
1F4
 10
713000.0
 20
5093000.0
 30
0.0
  0
VERTEX
  8
1
  6
CONTINUOUS
 62
     3
  5
1F5
 10
713000.0
 20
5092000.0
 30
0.0
  0
SEQEND
  8
1
  6
CONTINUOUS
 62
     3
  5
1F6
  0
TEXT
  8
1
  6
CONTINUOUS
 62
     3
  5
1F7
 10
712483.56
 20
5092493.75
 30
0.0
 40
12.5
  1
066
  7
ROMANS
 72
     4
 11
712500.0
 21
5092500.0
 31
0.0
210
0.0
220
0.0
230
1.0
  0
POLYLINE
  8
1
  6
CONTINUOUS
 62
     3
  5
1F8
 66
     1
 10
0.0
 20
0.0
 30
0.0
 70
     1
210
0.0
220
0.0
230
1.0
  0
VERTEX
  8
1
  6
CONTINUOUS
 62
     3
  5
1F9
 10
713000.0
 20
5092000.0
 30
0.0
  0
VERTEX
  8
1
  6
CONTINUOUS
 62
     3
  5
1FA
 10
713000.0
 20
5093000.0
 30
0.0
  0
VERTEX
  8
1
  6
CONTINUOUS
 62
     3
  5
1FB
 10
714000.0
 20
5093000.0
 30
0.0
  0
VERTEX
  8
1
  6
CONTINUOUS
 62
     3
  5
1FC
 10
714000.0
 20
5092000.0
 30
0.0
  0
SEQEND
  8
1
  6
CONTINUOUS
 62
     3
  5
1FD
  0
TEXT
  8
1
  6
CONTINUOUS
 62
     3
  5
1FE
 10
713483.86
 20
5092493.75
 30
0.0
 40
12.5
  1
067
  7
ROMANS
 72
     4
 11
713500.0
 21
5092500.0
 31
0.0
210
0.0
220
0.0
230
1.0
  0
POLYLINE
  8
1
  6
CONTINUOUS
 62
     3
  5
1FF
 66
     1
 10
0.0
 20
0.0
 30
0.0
 70
     1
210
0.0
220
0.0
230
1.0
  0
VERTEX
  8
1
  6
CONTINUOUS
 62
     3
  5
200
 10
718000.0
 20
5092000.0
 30
0.0
  0
VERTEX
  8
1
  6
CONTINUOUS
 62
     3
  5
201
 10
718000.0
 20
5093000.0
 30
0.0
  0
VERTEX
  8
1
  6
CONTINUOUS
 62
     3
  5
202
 10
719000.0
 20
5093000.0
 30
0.0
  0
VERTEX
  8
1
  6
CONTINUOUS
 62
     3
  5
203
 10
719000.0
 20
5092000.0
 30
0.0
  0
SEQEND
  8
1
  6
CONTINUOUS
 62
     3
  5
204
  0
TEXT
  8
1
  6
CONTINUOUS
 62
     3
  5
205
 10
718483.86
 20
5092493.75
 30
0.0
 40
12.5
  1
068
  7
ROMANS
 72
     4
 11
718500.0
 21
5092500.0
 31
0.0
210
0.0
220
0.0
230
1.0
  0
POLYLINE
  8
1
  6
CONTINUOUS
 62
     3
  5
206
 66
     1
 10
0.0
 20
0.0
 30
0.0
 70
     1
210
0.0
220
0.0
230
1.0
  0
VERTEX
  8
1
  6
CONTINUOUS
 62
     3
  5
207
 10
717000.0
 20
5092000.0
 30
0.0
  0
VERTEX
  8
1
  6
CONTINUOUS
 62
     3
  5
208
 10
717000.0
 20
5093000.0
 30
0.0
  0
VERTEX
  8
1
  6
CONTINUOUS
 62
     3
  5
209
 10
718000.0
 20
5093000.0
 30
0.0
  0
VERTEX
  8
1
  6
CONTINUOUS
 62
     3
  5
20A
 10
718000.0
 20
5092000.0
 30
0.0
  0
SEQEND
  8
1
  6
CONTINUOUS
 62
     3
  5
20B
  0
TEXT
  8
1
  6
CONTINUOUS
 62
     3
  5
20C
 10
717483.86
 20
5092493.75
 30
0.0
 40
12.5
  1
069
  7
ROMANS
 72
     4
 11
717500.0
 21
5092500.0
 31
0.0
210
0.0
220
0.0
230
1.0
  0
POLYLINE
  8
1
  6
CONTINUOUS
 62
     3
  5
20D
 66
     1
 10
0.0
 20
0.0
 30
0.0
 70
     1
210
0.0
220
0.0
230
1.0
  0
VERTEX
  8
1
  6
CONTINUOUS
 62
     3
  5
20E
 10
716000.0
 20
5092000.0
 30
0.0
  0
VERTEX
  8
1
  6
CONTINUOUS
 62
     3
  5
20F
 10
716000.0
 20
5093000.0
 30
0.0
  0
VERTEX
  8
1
  6
CONTINUOUS
 62
     3
  5
210
 10
717000.0
 20
5093000.0
 30
0.0
  0
VERTEX
  8
1
  6
CONTINUOUS
 62
     3
  5
211
 10
717000.0
 20
5092000.0
 30
0.0
  0
SEQEND
  8
1
  6
CONTINUOUS
 62
     3
  5
212
  0
TEXT
  8
1
  6
CONTINUOUS
 62
     3
  5
213
 10
716483.36
 20
5092493.75
 30
0.0
 40
12.5
  1
070
  7
ROMANS
 72
     4
 11
716500.0
 21
5092500.0
 31
0.0
210
0.0
220
0.0
230
1.0
  0
POLYLINE
  8
1
  6
CONTINUOUS
 62
     3
  5
214
 66
     1
 10
0.0
 20
0.0
 30
0.0
 70
     1
210
0.0
220
0.0
230
1.0
  0
VERTEX
  8
1
  6
CONTINUOUS
 62
     3
  5
215
 10
715000.0
 20
5092000.0
 30
0.0
  0
VERTEX
  8
1
  6
CONTINUOUS
 62
     3
  5
216
 10
715000.0
 20
5093000.0
 30
0.0
  0
VERTEX
  8
1
  6
CONTINUOUS
 62
     3
  5
217
 10
716000.0
 20
5093000.0
 30
0.0
  0
VERTEX
  8
1
  6
CONTINUOUS
 62
     3
  5
218
 10
716000.0
 20
5092000.0
 30
0.0
  0
SEQEND
  8
1
  6
CONTINUOUS
 62
     3
  5
219
  0
TEXT
  8
1
  6
CONTINUOUS
 62
     3
  5
21A
 10
715485.42
 20
5092493.75
 30
0.0
 40
12.5
  1
071
  7
ROMANS
 72
     4
 11
715500.0
 21
5092500.0
 31
0.0
210
0.0
220
0.0
230
1.0
  0
POLYLINE
  8
1
  6
CONTINUOUS
 62
     3
  5
21B
 66
     1
 10
0.0
 20
0.0
 30
0.0
 70
     1
210
0.0
220
0.0
230
1.0
  0
VERTEX
  8
1
  6
CONTINUOUS
 62
     3
  5
21C
 10
714000.0
 20
5092000.0
 30
0.0
  0
VERTEX
  8
1
  6
CONTINUOUS
 62
     3
  5
21D
 10
714000.0
 20
5093000.0
 30
0.0
  0
VERTEX
  8
1
  6
CONTINUOUS
 62
     3
  5
21E
 10
715000.0
 20
5093000.0
 30
0.0
  0
VERTEX
  8
1
  6
CONTINUOUS
 62
     3
  5
21F
 10
715000.0
 20
5092000.0
 30
0.0
  0
SEQEND
  8
1
  6
CONTINUOUS
 62
     3
  5
220
  0
TEXT
  8
1
  6
CONTINUOUS
 62
     3
  5
221
 10
714483.86
 20
5092493.75
 30
0.0
 40
12.5
  1
072
  7
ROMANS
 72
     4
 11
714500.0
 21
5092500.0
 31
0.0
210
0.0
220
0.0
230
1.0
  0
POLYLINE
  8
1
  6
CONTINUOUS
 62
     3
  5
222
 66
     1
 10
0.0
 20
0.0
 30
0.0
 70
     1
210
0.0
220
0.0
230
1.0
  0
VERTEX
  8
1
  6
CONTINUOUS
 62
     3
  5
223
 10
703000.0
 20
5092000.0
 30
0.0
  0
VERTEX
  8
1
  6
CONTINUOUS
 62
     3
  5
224
 10
703000.0
 20
5093000.0
 30
0.0
  0
VERTEX
  8
1
  6
CONTINUOUS
 62
     3
  5
225
 10
704000.0
 20
5093000.0
 30
0.0
  0
VERTEX
  8
1
  6
CONTINUOUS
 62
     3
  5
226
 10
704000.0
 20
5092000.0
 30
0.0
  0
SEQEND
  8
1
  6
CONTINUOUS
 62
     3
  5
227
  0
TEXT
  8
1
  6
CONTINUOUS
 62
     3
  5
228
 10
703483.86
 20
5092493.75
 30
0.0
 40
12.5
  1
073
  7
ROMANS
 72
     4
 11
703500.0
 21
5092500.0
 31
0.0
210
0.0
220
0.0
230
1.0
  0
POLYLINE
  8
1
  6
CONTINUOUS
 62
     3
  5
229
 66
     1
 10
0.0
 20
0.0
 30
0.0
 70
     1
210
0.0
220
0.0
230
1.0
  0
VERTEX
  8
1
  6
CONTINUOUS
 62
     3
  5
22A
 10
704000.0
 20
5091000.0
 30
0.0
  0
VERTEX
  8
1
  6
CONTINUOUS
 62
     3
  5
22B
 10
704000.0
 20
5092000.0
 30
0.0
  0
VERTEX
  8
1
  6
CONTINUOUS
 62
     3
  5
22C
 10
705000.0
 20
5092000.0
 30
0.0
  0
VERTEX
  8
1
  6
CONTINUOUS
 62
     3
  5
22D
 10
705000.0
 20
5091000.0
 30
0.0
  0
SEQEND
  8
1
  6
CONTINUOUS
 62
     3
  5
22E
  0
TEXT
  8
1
  6
CONTINUOUS
 62
     3
  5
22F
 10
704483.86
 20
5091493.75
 30
0.0
 40
12.5
  1
074
  7
ROMANS
 72
     4
 11
704500.0
 21
5091500.0
 31
0.0
210
0.0
220
0.0
230
1.0
  0
POLYLINE
  8
1
  6
CONTINUOUS
 62
     3
  5
230
 66
     1
 10
0.0
 20
0.0
 30
0.0
 70
     1
210
0.0
220
0.0
230
1.0
  0
VERTEX
  8
1
  6
CONTINUOUS
 62
     3
  5
231
 10
705000.0
 20
5091000.0
 30
0.0
  0
VERTEX
  8
1
  6
CONTINUOUS
 62
     3
  5
232
 10
705000.0
 20
5092000.0
 30
0.0
  0
VERTEX
  8
1
  6
CONTINUOUS
 62
     3
  5
233
 10
706000.0
 20
5092000.0
 30
0.0
  0
VERTEX
  8
1
  6
CONTINUOUS
 62
     3
  5
234
 10
706000.0
 20
5091000.0
 30
0.0
  0
SEQEND
  8
1
  6
CONTINUOUS
 62
     3
  5
235
  0
TEXT
  8
1
  6
CONTINUOUS
 62
     3
  5
236
 10
705483.84
 20
5091493.75
 30
0.0
 40
12.5
  1
075
  7
ROMANS
 72
     4
 11
705500.0
 21
5091500.0
 31
0.0
210
0.0
220
0.0
230
1.0
  0
POLYLINE
  8
1
  6
CONTINUOUS
 62
     3
  5
237
 66
     1
 10
0.0
 20
0.0
 30
0.0
 70
     1
210
0.0
220
0.0
230
1.0
  0
VERTEX
  8
1
  6
CONTINUOUS
 62
     3
  5
238
 10
706000.0
 20
5091000.0
 30
0.0
  0
VERTEX
  8
1
  6
CONTINUOUS
 62
     3
  5
239
 10
706000.0
 20
5092000.0
 30
0.0
  0
VERTEX
  8
1
  6
CONTINUOUS
 62
     3
  5
23A
 10
707000.0
 20
5092000.0
 30
0.0
  0
VERTEX
  8
1
  6
CONTINUOUS
 62
     3
  5
23B
 10
707000.0
 20
5091000.0
 30
0.0
  0
SEQEND
  8
1
  6
CONTINUOUS
 62
     3
  5
23C
  0
TEXT
  8
1
  6
CONTINUOUS
 62
     3
  5
23D
 10
706483.56
 20
5091493.75
 30
0.0
 40
12.5
  1
076
  7
ROMANS
 72
     4
 11
706500.0
 21
5091500.0
 31
0.0
210
0.0
220
0.0
230
1.0
  0
POLYLINE
  8
1
  6
CONTINUOUS
 62
     3
  5
23E
 66
     1
 10
0.0
 20
0.0
 30
0.0
 70
     1
210
0.0
220
0.0
230
1.0
  0
VERTEX
  8
1
  6
CONTINUOUS
 62
     3
  5
23F
 10
707000.0
 20
5091000.0
 30
0.0
  0
VERTEX
  8
1
  6
CONTINUOUS
 62
     3
  5
240
 10
707000.0
 20
5092000.0
 30
0.0
  0
VERTEX
  8
1
  6
CONTINUOUS
 62
     3
  5
241
 10
708000.0
 20
5092000.0
 30
0.0
  0
VERTEX
  8
1
  6
CONTINUOUS
 62
     3
  5
242
 10
708000.0
 20
5091000.0
 30
0.0
  0
SEQEND
  8
1
  6
CONTINUOUS
 62
     3
  5
243
  0
TEXT
  8
1
  6
CONTINUOUS
 62
     3
  5
244
 10
707483.86
 20
5091493.75
 30
0.0
 40
12.5
  1
077
  7
ROMANS
 72
     4
 11
707500.0
 21
5091500.0
 31
0.0
210
0.0
220
0.0
230
1.0
  0
POLYLINE
  8
1
  6
CONTINUOUS
 62
     3
  5
245
 66
     1
 10
0.0
 20
0.0
 30
0.0
 70
     1
210
0.0
220
0.0
230
1.0
  0
VERTEX
  8
1
  6
CONTINUOUS
 62
     3
  5
246
 10
708000.0
 20
5091000.0
 30
0.0
  0
VERTEX
  8
1
  6
CONTINUOUS
 62
     3
  5
247
 10
708000.0
 20
5092000.0
 30
0.0
  0
VERTEX
  8
1
  6
CONTINUOUS
 62
     3
  5
248
 10
709000.0
 20
5092000.0
 30
0.0
  0
VERTEX
  8
1
  6
CONTINUOUS
 62
     3
  5
249
 10
709000.0
 20
5091000.0
 30
0.0
  0
SEQEND
  8
1
  6
CONTINUOUS
 62
     3
  5
24A
  0
TEXT
  8
1
  6
CONTINUOUS
 62
     3
  5
24B
 10
708483.86
 20
5091493.75
 30
0.0
 40
12.5
  1
078
  7
ROMANS
 72
     4
 11
708500.0
 21
5091500.0
 31
0.0
210
0.0
220
0.0
230
1.0
  0
POLYLINE
  8
1
  6
CONTINUOUS
 62
     3
  5
24C
 66
     1
 10
0.0
 20
0.0
 30
0.0
 70
     1
210
0.0
220
0.0
230
1.0
  0
VERTEX
  8
1
  6
CONTINUOUS
 62
     3
  5
24D
 10
716000.0
 20
5091000.0
 30
0.0
  0
VERTEX
  8
1
  6
CONTINUOUS
 62
     3
  5
24E
 10
716000.0
 20
5092000.0
 30
0.0
  0
VERTEX
  8
1
  6
CONTINUOUS
 62
     3
  5
24F
 10
717000.0
 20
5092000.0
 30
0.0
  0
VERTEX
  8
1
  6
CONTINUOUS
 62
     3
  5
250
 10
717000.0
 20
5091000.0
 30
0.0
  0
SEQEND
  8
1
  6
CONTINUOUS
 62
     3
  5
251
  0
TEXT
  8
1
  6
CONTINUOUS
 62
     3
  5
252
 10
716483.86
 20
5091493.75
 30
0.0
 40
12.5
  1
079
  7
ROMANS
 72
     4
 11
716500.0
 21
5091500.0
 31
0.0
210
0.0
220
0.0
230
1.0
  0
POLYLINE
  8
1
  6
CONTINUOUS
 62
     3
  5
253
 66
     1
 10
0.0
 20
0.0
 30
0.0
 70
     1
210
0.0
220
0.0
230
1.0
  0
VERTEX
  8
1
  6
CONTINUOUS
 62
     3
  5
254
 10
715000.0
 20
5091000.0
 30
0.0
  0
VERTEX
  8
1
  6
CONTINUOUS
 62
     3
  5
255
 10
715000.0
 20
5092000.0
 30
0.0
  0
VERTEX
  8
1
  6
CONTINUOUS
 62
     3
  5
256
 10
716000.0
 20
5092000.0
 30
0.0
  0
VERTEX
  8
1
  6
CONTINUOUS
 62
     3
  5
257
 10
716000.0
 20
5091000.0
 30
0.0
  0
SEQEND
  8
1
  6
CONTINUOUS
 62
     3
  5
258
  0
TEXT
  8
1
  6
CONTINUOUS
 62
     3
  5
259
 10
715483.36
 20
5091493.75
 30
0.0
 40
12.5
  1
080
  7
ROMANS
 72
     4
 11
715500.0
 21
5091500.0
 31
0.0
210
0.0
220
0.0
230
1.0
  0
POLYLINE
  8
1
  6
CONTINUOUS
 62
     3
  5
25A
 66
     1
 10
0.0
 20
0.0
 30
0.0
 70
     1
210
0.0
220
0.0
230
1.0
  0
VERTEX
  8
1
  6
CONTINUOUS
 62
     3
  5
25B
 10
714000.0
 20
5091000.0
 30
0.0
  0
VERTEX
  8
1
  6
CONTINUOUS
 62
     3
  5
25C
 10
714000.0
 20
5092000.0
 30
0.0
  0
VERTEX
  8
1
  6
CONTINUOUS
 62
     3
  5
25D
 10
715000.0
 20
5092000.0
 30
0.0
  0
VERTEX
  8
1
  6
CONTINUOUS
 62
     3
  5
25E
 10
715000.0
 20
5091000.0
 30
0.0
  0
SEQEND
  8
1
  6
CONTINUOUS
 62
     3
  5
25F
  0
TEXT
  8
1
  6
CONTINUOUS
 62
     3
  5
260
 10
714485.42
 20
5091493.75
 30
0.0
 40
12.5
  1
081
  7
ROMANS
 72
     4
 11
714500.0
 21
5091500.0
 31
0.0
210
0.0
220
0.0
230
1.0
  0
POLYLINE
  8
1
  6
CONTINUOUS
 62
     3
  5
261
 66
     1
 10
0.0
 20
0.0
 30
0.0
 70
     1
210
0.0
220
0.0
230
1.0
  0
VERTEX
  8
1
  6
CONTINUOUS
 62
     3
  5
262
 10
713000.0
 20
5091000.0
 30
0.0
  0
VERTEX
  8
1
  6
CONTINUOUS
 62
     3
  5
263
 10
713000.0
 20
5092000.0
 30
0.0
  0
VERTEX
  8
1
  6
CONTINUOUS
 62
     3
  5
264
 10
714000.0
 20
5092000.0
 30
0.0
  0
VERTEX
  8
1
  6
CONTINUOUS
 62
     3
  5
265
 10
714000.0
 20
5091000.0
 30
0.0
  0
SEQEND
  8
1
  6
CONTINUOUS
 62
     3
  5
266
  0
TEXT
  8
1
  6
CONTINUOUS
 62
     3
  5
267
 10
713483.86
 20
5091493.75
 30
0.0
 40
12.5
  1
082
  7
ROMANS
 72
     4
 11
713500.0
 21
5091500.0
 31
0.0
210
0.0
220
0.0
230
1.0
  0
POLYLINE
  8
1
  6
CONTINUOUS
 62
     3
  5
268
 66
     1
 10
0.0
 20
0.0
 30
0.0
 70
     1
210
0.0
220
0.0
230
1.0
  0
VERTEX
  8
1
  6
CONTINUOUS
 62
     3
  5
269
 10
712000.0
 20
5091000.0
 30
0.0
  0
VERTEX
  8
1
  6
CONTINUOUS
 62
     3
  5
26A
 10
712000.0
 20
5092000.0
 30
0.0
  0
VERTEX
  8
1
  6
CONTINUOUS
 62
     3
  5
26B
 10
713000.0
 20
5092000.0
 30
0.0
  0
VERTEX
  8
1
  6
CONTINUOUS
 62
     3
  5
26C
 10
713000.0
 20
5091000.0
 30
0.0
  0
SEQEND
  8
1
  6
CONTINUOUS
 62
     3
  5
26D
  0
TEXT
  8
1
  6
CONTINUOUS
 62
     3
  5
26E
 10
712483.86
 20
5091493.75
 30
0.0
 40
12.5
  1
083
  7
ROMANS
 72
     4
 11
712500.0
 21
5091500.0
 31
0.0
210
0.0
220
0.0
230
1.0
  0
POLYLINE
  8
1
  6
CONTINUOUS
 62
     3
  5
26F
 66
     1
 10
0.0
 20
0.0
 30
0.0
 70
     1
210
0.0
220
0.0
230
1.0
  0
VERTEX
  8
1
  6
CONTINUOUS
 62
     3
  5
270
 10
711000.0
 20
5091000.0
 30
0.0
  0
VERTEX
  8
1
  6
CONTINUOUS
 62
     3
  5
271
 10
711000.0
 20
5092000.0
 30
0.0
  0
VERTEX
  8
1
  6
CONTINUOUS
 62
     3
  5
272
 10
712000.0
 20
5092000.0
 30
0.0
  0
VERTEX
  8
1
  6
CONTINUOUS
 62
     3
  5
273
 10
712000.0
 20
5091000.0
 30
0.0
  0
SEQEND
  8
1
  6
CONTINUOUS
 62
     3
  5
274
  0
TEXT
  8
1
  6
CONTINUOUS
 62
     3
  5
275
 10
711483.86
 20
5091493.75
 30
0.0
 40
12.5
  1
084
  7
ROMANS
 72
     4
 11
711500.0
 21
5091500.0
 31
0.0
210
0.0
220
0.0
230
1.0
  0
POLYLINE
  8
1
  6
CONTINUOUS
 62
     3
  5
276
 66
     1
 10
0.0
 20
0.0
 30
0.0
 70
     1
210
0.0
220
0.0
230
1.0
  0
VERTEX
  8
1
  6
CONTINUOUS
 62
     3
  5
277
 10
710000.0
 20
5091000.0
 30
0.0
  0
VERTEX
  8
1
  6
CONTINUOUS
 62
     3
  5
278
 10
710000.0
 20
5092000.0
 30
0.0
  0
VERTEX
  8
1
  6
CONTINUOUS
 62
     3
  5
279
 10
711000.0
 20
5092000.0
 30
0.0
  0
VERTEX
  8
1
  6
CONTINUOUS
 62
     3
  5
27A
 10
711000.0
 20
5091000.0
 30
0.0
  0
SEQEND
  8
1
  6
CONTINUOUS
 62
     3
  5
27B
  0
TEXT
  8
1
  6
CONTINUOUS
 62
     3
  5
27C
 10
710483.84
 20
5091493.75
 30
0.0
 40
12.5
  1
085
  7
ROMANS
 72
     4
 11
710500.0
 21
5091500.0
 31
0.0
210
0.0
220
0.0
230
1.0
  0
POLYLINE
  8
1
  6
CONTINUOUS
 62
     3
  5
27D
 66
     1
 10
0.0
 20
0.0
 30
0.0
 70
     1
210
0.0
220
0.0
230
1.0
  0
VERTEX
  8
1
  6
CONTINUOUS
 62
     3
  5
27E
 10
709000.0
 20
5091000.0
 30
0.0
  0
VERTEX
  8
1
  6
CONTINUOUS
 62
     3
  5
27F
 10
709000.0
 20
5092000.0
 30
0.0
  0
VERTEX
  8
1
  6
CONTINUOUS
 62
     3
  5
280
 10
710000.0
 20
5092000.0
 30
0.0
  0
VERTEX
  8
1
  6
CONTINUOUS
 62
     3
  5
281
 10
710000.0
 20
5091000.0
 30
0.0
  0
SEQEND
  8
1
  6
CONTINUOUS
 62
     3
  5
282
  0
TEXT
  8
1
  6
CONTINUOUS
 62
     3
  5
283
 10
709483.56
 20
5091493.75
 30
0.0
 40
12.5
  1
086
  7
ROMANS
 72
     4
 11
709500.0
 21
5091500.0
 31
0.0
210
0.0
220
0.0
230
1.0
  0
POLYLINE
  8
1
  6
CONTINUOUS
 62
     3
  5
284
 66
     1
 10
0.0
 20
0.0
 30
0.0
 70
     1
210
0.0
220
0.0
230
1.0
  0
VERTEX
  8
1
  6
CONTINUOUS
 62
     3
  5
285
 10
703000.0
 20
5091000.0
 30
0.0
  0
VERTEX
  8
1
  6
CONTINUOUS
 62
     3
  5
286
 10
703000.0
 20
5092000.0
 30
0.0
  0
VERTEX
  8
1
  6
CONTINUOUS
 62
     3
  5
287
 10
704000.0
 20
5092000.0
 30
0.0
  0
VERTEX
  8
1
  6
CONTINUOUS
 62
     3
  5
288
 10
704000.0
 20
5091000.0
 30
0.0
  0
SEQEND
  8
1
  6
CONTINUOUS
 62
     3
  5
289
  0
TEXT
  8
1
  6
CONTINUOUS
 62
     3
  5
28A
 10
703483.86
 20
5091493.75
 30
0.0
 40
12.5
  1
087
  7
ROMANS
 72
     4
 11
703500.0
 21
5091500.0
 31
0.0
210
0.0
220
0.0
230
1.0
  0
POLYLINE
  8
1
  6
CONTINUOUS
 62
     3
  5
28B
 66
     1
 10
0.0
 20
0.0
 30
0.0
 70
     1
210
0.0
220
0.0
230
1.0
  0
VERTEX
  8
1
  6
CONTINUOUS
 62
     3
  5
28C
 10
718000.0
 20
5091000.0
 30
0.0
  0
VERTEX
  8
1
  6
CONTINUOUS
 62
     3
  5
28D
 10
718000.0
 20
5092000.0
 30
0.0
  0
VERTEX
  8
1
  6
CONTINUOUS
 62
     3
  5
28E
 10
719000.0
 20
5092000.0
 30
0.0
  0
VERTEX
  8
1
  6
CONTINUOUS
 62
     3
  5
28F
 10
719000.0
 20
5091000.0
 30
0.0
  0
SEQEND
  8
1
  6
CONTINUOUS
 62
     3
  5
290
  0
TEXT
  8
1
  6
CONTINUOUS
 62
     3
  5
291
 10
718483.86
 20
5091493.75
 30
0.0
 40
12.5
  1
088
  7
ROMANS
 72
     4
 11
718500.0
 21
5091500.0
 31
0.0
210
0.0
220
0.0
230
1.0
  0
POLYLINE
  8
1
  6
CONTINUOUS
 62
     3
  5
292
 66
     1
 10
0.0
 20
0.0
 30
0.0
 70
     1
210
0.0
220
0.0
230
1.0
  0
VERTEX
  8
1
  6
CONTINUOUS
 62
     3
  5
293
 10
717000.0
 20
5091000.0
 30
0.0
  0
VERTEX
  8
1
  6
CONTINUOUS
 62
     3
  5
294
 10
717000.0
 20
5092000.0
 30
0.0
  0
VERTEX
  8
1
  6
CONTINUOUS
 62
     3
  5
295
 10
718000.0
 20
5092000.0
 30
0.0
  0
VERTEX
  8
1
  6
CONTINUOUS
 62
     3
  5
296
 10
718000.0
 20
5091000.0
 30
0.0
  0
SEQEND
  8
1
  6
CONTINUOUS
 62
     3
  5
297
  0
TEXT
  8
1
  6
CONTINUOUS
 62
     3
  5
298
 10
717483.86
 20
5091493.75
 30
0.0
 40
12.5
  1
089
  7
ROMANS
 72
     4
 11
717500.0
 21
5091500.0
 31
0.0
210
0.0
220
0.0
230
1.0
  0
POLYLINE
  8
1
  6
CONTINUOUS
 62
     3
  5
299
 66
     1
 10
0.0
 20
0.0
 30
0.0
 70
     1
210
0.0
220
0.0
230
1.0
  0
VERTEX
  8
1
  6
CONTINUOUS
 62
     3
  5
29A
 10
704000.0
 20
5090000.0
 30
0.0
  0
VERTEX
  8
1
  6
CONTINUOUS
 62
     3
  5
29B
 10
704000.0
 20
5091000.0
 30
0.0
  0
VERTEX
  8
1
  6
CONTINUOUS
 62
     3
  5
29C
 10
705000.0
 20
5091000.0
 30
0.0
  0
VERTEX
  8
1
  6
CONTINUOUS
 62
     3
  5
29D
 10
705000.0
 20
5090000.0
 30
0.0
  0
SEQEND
  8
1
  6
CONTINUOUS
 62
     3
  5
29E
  0
TEXT
  8
1
  6
CONTINUOUS
 62
     3
  5
29F
 10
704483.36
 20
5090493.75
 30
0.0
 40
12.5
  1
090
  7
ROMANS
 72
     4
 11
704500.0
 21
5090500.0
 31
0.0
210
0.0
220
0.0
230
1.0
  0
POLYLINE
  8
1
  6
CONTINUOUS
 62
     3
  5
2A0
 66
     1
 10
0.0
 20
0.0
 30
0.0
 70
     1
210
0.0
220
0.0
230
1.0
  0
VERTEX
  8
1
  6
CONTINUOUS
 62
     3
  5
2A1
 10
705000.0
 20
5090000.0
 30
0.0
  0
VERTEX
  8
1
  6
CONTINUOUS
 62
     3
  5
2A2
 10
705000.0
 20
5091000.0
 30
0.0
  0
VERTEX
  8
1
  6
CONTINUOUS
 62
     3
  5
2A3
 10
706000.0
 20
5091000.0
 30
0.0
  0
VERTEX
  8
1
  6
CONTINUOUS
 62
     3
  5
2A4
 10
706000.0
 20
5090000.0
 30
0.0
  0
SEQEND
  8
1
  6
CONTINUOUS
 62
     3
  5
2A5
  0
TEXT
  8
1
  6
CONTINUOUS
 62
     3
  5
2A6
 10
705485.42
 20
5090493.75
 30
0.0
 40
12.5
  1
091
  7
ROMANS
 72
     4
 11
705500.0
 21
5090500.0
 31
0.0
210
0.0
220
0.0
230
1.0
  0
POLYLINE
  8
1
  6
CONTINUOUS
 62
     3
  5
2A7
 66
     1
 10
0.0
 20
0.0
 30
0.0
 70
     1
210
0.0
220
0.0
230
1.0
  0
VERTEX
  8
1
  6
CONTINUOUS
 62
     3
  5
2A8
 10
708000.0
 20
5090000.0
 30
0.0
  0
VERTEX
  8
1
  6
CONTINUOUS
 62
     3
  5
2A9
 10
708000.0
 20
5091000.0
 30
0.0
  0
VERTEX
  8
1
  6
CONTINUOUS
 62
     3
  5
2AA
 10
709000.0
 20
5091000.0
 30
0.0
  0
VERTEX
  8
1
  6
CONTINUOUS
 62
     3
  5
2AB
 10
709000.0
 20
5090000.0
 30
0.0
  0
SEQEND
  8
1
  6
CONTINUOUS
 62
     3
  5
2AC
  0
TEXT
  8
1
  6
CONTINUOUS
 62
     3
  5
2AD
 10
708483.86
 20
5090493.75
 30
0.0
 40
12.5
  1
092
  7
ROMANS
 72
     4
 11
708500.0
 21
5090500.0
 31
0.0
210
0.0
220
0.0
230
1.0
  0
POLYLINE
  8
1
  6
CONTINUOUS
 62
     3
  5
2AE
 66
     1
 10
0.0
 20
0.0
 30
0.0
 70
     1
210
0.0
220
0.0
230
1.0
  0
VERTEX
  8
1
  6
CONTINUOUS
 62
     3
  5
2AF
 10
706000.0
 20
5090000.0
 30
0.0
  0
VERTEX
  8
1
  6
CONTINUOUS
 62
     3
  5
2B0
 10
706000.0
 20
5091000.0
 30
0.0
  0
VERTEX
  8
1
  6
CONTINUOUS
 62
     3
  5
2B1
 10
707000.0
 20
5091000.0
 30
0.0
  0
VERTEX
  8
1
  6
CONTINUOUS
 62
     3
  5
2B2
 10
707000.0
 20
5090000.0
 30
0.0
  0
SEQEND
  8
1
  6
CONTINUOUS
 62
     3
  5
2B3
  0
TEXT
  8
1
  6
CONTINUOUS
 62
     3
  5
2B4
 10
706483.86
 20
5090493.75
 30
0.0
 40
12.5
  1
093
  7
ROMANS
 72
     4
 11
706500.0
 21
5090500.0
 31
0.0
210
0.0
220
0.0
230
1.0
  0
POLYLINE
  8
1
  6
CONTINUOUS
 62
     3
  5
2B5
 66
     1
 10
0.0
 20
0.0
 30
0.0
 70
     1
210
0.0
220
0.0
230
1.0
  0
VERTEX
  8
1
  6
CONTINUOUS
 62
     3
  5
2B6
 10
707000.0
 20
5090000.0
 30
0.0
  0
VERTEX
  8
1
  6
CONTINUOUS
 62
     3
  5
2B7
 10
707000.0
 20
5091000.0
 30
0.0
  0
VERTEX
  8
1
  6
CONTINUOUS
 62
     3
  5
2B8
 10
708000.0
 20
5091000.0
 30
0.0
  0
VERTEX
  8
1
  6
CONTINUOUS
 62
     3
  5
2B9
 10
708000.0
 20
5090000.0
 30
0.0
  0
SEQEND
  8
1
  6
CONTINUOUS
 62
     3
  5
2BA
  0
TEXT
  8
1
  6
CONTINUOUS
 62
     3
  5
2BB
 10
707483.86
 20
5090493.75
 30
0.0
 40
12.5
  1
094
  7
ROMANS
 72
     4
 11
707500.0
 21
5090500.0
 31
0.0
210
0.0
220
0.0
230
1.0
  0
POLYLINE
  8
1
  6
CONTINUOUS
 62
     3
  5
2BC
 66
     1
 10
0.0
 20
0.0
 30
0.0
 70
     1
210
0.0
220
0.0
230
1.0
  0
VERTEX
  8
1
  6
CONTINUOUS
 62
     3
  5
2BD
 10
709000.0
 20
5090000.0
 30
0.0
  0
VERTEX
  8
1
  6
CONTINUOUS
 62
     3
  5
2BE
 10
709000.0
 20
5091000.0
 30
0.0
  0
VERTEX
  8
1
  6
CONTINUOUS
 62
     3
  5
2BF
 10
710000.0
 20
5091000.0
 30
0.0
  0
VERTEX
  8
1
  6
CONTINUOUS
 62
     3
  5
2C0
 10
710000.0
 20
5090000.0
 30
0.0
  0
SEQEND
  8
1
  6
CONTINUOUS
 62
     3
  5
2C1
  0
TEXT
  8
1
  6
CONTINUOUS
 62
     3
  5
2C2
 10
709483.84
 20
5090493.75
 30
0.0
 40
12.5
  1
095
  7
ROMANS
 72
     4
 11
709500.0
 21
5090500.0
 31
0.0
210
0.0
220
0.0
230
1.0
  0
POLYLINE
  8
1
  6
CONTINUOUS
 62
     3
  5
2C3
 66
     1
 10
0.0
 20
0.0
 30
0.0
 70
     1
210
0.0
220
0.0
230
1.0
  0
VERTEX
  8
1
  6
CONTINUOUS
 62
     3
  5
2C4
 10
710000.0
 20
5090000.0
 30
0.0
  0
VERTEX
  8
1
  6
CONTINUOUS
 62
     3
  5
2C5
 10
710000.0
 20
5091000.0
 30
0.0
  0
VERTEX
  8
1
  6
CONTINUOUS
 62
     3
  5
2C6
 10
711000.0
 20
5091000.0
 30
0.0
  0
VERTEX
  8
1
  6
CONTINUOUS
 62
     3
  5
2C7
 10
711000.0
 20
5090000.0
 30
0.0
  0
SEQEND
  8
1
  6
CONTINUOUS
 62
     3
  5
2C8
  0
TEXT
  8
1
  6
CONTINUOUS
 62
     3
  5
2C9
 10
710483.56
 20
5090493.75
 30
0.0
 40
12.5
  1
096
  7
ROMANS
 72
     4
 11
710500.0
 21
5090500.0
 31
0.0
210
0.0
220
0.0
230
1.0
  0
POLYLINE
  8
1
  6
CONTINUOUS
 62
     3
  5
2CA
 66
     1
 10
0.0
 20
0.0
 30
0.0
 70
     1
210
0.0
220
0.0
230
1.0
  0
VERTEX
  8
1
  6
CONTINUOUS
 62
     3
  5
2CB
 10
711000.0
 20
5090000.0
 30
0.0
  0
VERTEX
  8
1
  6
CONTINUOUS
 62
     3
  5
2CC
 10
711000.0
 20
5091000.0
 30
0.0
  0
VERTEX
  8
1
  6
CONTINUOUS
 62
     3
  5
2CD
 10
712000.0
 20
5091000.0
 30
0.0
  0
VERTEX
  8
1
  6
CONTINUOUS
 62
     3
  5
2CE
 10
712000.0
 20
5090000.0
 30
0.0
  0
SEQEND
  8
1
  6
CONTINUOUS
 62
     3
  5
2CF
  0
TEXT
  8
1
  6
CONTINUOUS
 62
     3
  5
2D0
 10
711483.86
 20
5090493.75
 30
0.0
 40
12.5
  1
097
  7
ROMANS
 72
     4
 11
711500.0
 21
5090500.0
 31
0.0
210
0.0
220
0.0
230
1.0
  0
POLYLINE
  8
1
  6
CONTINUOUS
 62
     3
  5
2D1
 66
     1
 10
0.0
 20
0.0
 30
0.0
 70
     1
210
0.0
220
0.0
230
1.0
  0
VERTEX
  8
1
  6
CONTINUOUS
 62
     3
  5
2D2
 10
712000.0
 20
5090000.0
 30
0.0
  0
VERTEX
  8
1
  6
CONTINUOUS
 62
     3
  5
2D3
 10
712000.0
 20
5091000.0
 30
0.0
  0
VERTEX
  8
1
  6
CONTINUOUS
 62
     3
  5
2D4
 10
713000.0
 20
5091000.0
 30
0.0
  0
VERTEX
  8
1
  6
CONTINUOUS
 62
     3
  5
2D5
 10
713000.0
 20
5090000.0
 30
0.0
  0
SEQEND
  8
1
  6
CONTINUOUS
 62
     3
  5
2D6
  0
TEXT
  8
1
  6
CONTINUOUS
 62
     3
  5
2D7
 10
712483.86
 20
5090493.75
 30
0.0
 40
12.5
  1
098
  7
ROMANS
 72
     4
 11
712500.0
 21
5090500.0
 31
0.0
210
0.0
220
0.0
230
1.0
  0
POLYLINE
  8
1
  6
CONTINUOUS
 62
     3
  5
2D8
 66
     1
 10
0.0
 20
0.0
 30
0.0
 70
     1
210
0.0
220
0.0
230
1.0
  0
VERTEX
  8
1
  6
CONTINUOUS
 62
     3
  5
2D9
 10
713000.0
 20
5090000.0
 30
0.0
  0
VERTEX
  8
1
  6
CONTINUOUS
 62
     3
  5
2DA
 10
713000.0
 20
5091000.0
 30
0.0
  0
VERTEX
  8
1
  6
CONTINUOUS
 62
     3
  5
2DB
 10
714000.0
 20
5091000.0
 30
0.0
  0
VERTEX
  8
1
  6
CONTINUOUS
 62
     3
  5
2DC
 10
714000.0
 20
5090000.0
 30
0.0
  0
SEQEND
  8
1
  6
CONTINUOUS
 62
     3
  5
2DD
  0
TEXT
  8
1
  6
CONTINUOUS
 62
     3
  5
2DE
 10
713483.86
 20
5090493.75
 30
0.0
 40
12.5
  1
099
  7
ROMANS
 72
     4
 11
713500.0
 21
5090500.0
 31
0.0
210
0.0
220
0.0
230
1.0
  0
POLYLINE
  8
1
  6
CONTINUOUS
 62
     3
  5
2DF
 66
     1
 10
0.0
 20
0.0
 30
0.0
 70
     1
210
0.0
220
0.0
230
1.0
  0
VERTEX
  8
1
  6
CONTINUOUS
 62
     3
  5
2E0
 10
714000.0
 20
5090000.0
 30
0.0
  0
VERTEX
  8
1
  6
CONTINUOUS
 62
     3
  5
2E1
 10
714000.0
 20
5091000.0
 30
0.0
  0
VERTEX
  8
1
  6
CONTINUOUS
 62
     3
  5
2E2
 10
715000.0
 20
5091000.0
 30
0.0
  0
VERTEX
  8
1
  6
CONTINUOUS
 62
     3
  5
2E3
 10
715000.0
 20
5090000.0
 30
0.0
  0
SEQEND
  8
1
  6
CONTINUOUS
 62
     3
  5
2E4
  0
TEXT
  8
1
  6
CONTINUOUS
 62
     3
  5
2E5
 10
714483.36
 20
5090493.75
 30
0.0
 40
12.5
  1
100
  7
ROMANS
 72
     4
 11
714500.0
 21
5090500.0
 31
0.0
210
0.0
220
0.0
230
1.0
  0
POLYLINE
  8
1
  6
CONTINUOUS
 62
     3
  5
2E6
 66
     1
 10
0.0
 20
0.0
 30
0.0
 70
     1
210
0.0
220
0.0
230
1.0
  0
VERTEX
  8
1
  6
CONTINUOUS
 62
     3
  5
2E7
 10
715000.0
 20
5090000.0
 30
0.0
  0
VERTEX
  8
1
  6
CONTINUOUS
 62
     3
  5
2E8
 10
715000.0
 20
5091000.0
 30
0.0
  0
VERTEX
  8
1
  6
CONTINUOUS
 62
     3
  5
2E9
 10
716000.0
 20
5091000.0
 30
0.0
  0
VERTEX
  8
1
  6
CONTINUOUS
 62
     3
  5
2EA
 10
716000.0
 20
5090000.0
 30
0.0
  0
SEQEND
  8
1
  6
CONTINUOUS
 62
     3
  5
2EB
  0
TEXT
  8
1
  6
CONTINUOUS
 62
     3
  5
2EC
 10
715485.42
 20
5090493.75
 30
0.0
 40
12.5
  1
101
  7
ROMANS
 72
     4
 11
715500.0
 21
5090500.0
 31
0.0
210
0.0
220
0.0
230
1.0
  0
POLYLINE
  8
1
  6
CONTINUOUS
 62
     3
  5
2ED
 66
     1
 10
0.0
 20
0.0
 30
0.0
 70
     1
210
0.0
220
0.0
230
1.0
  0
VERTEX
  8
1
  6
CONTINUOUS
 62
     3
  5
2EE
 10
718000.0
 20
5090000.0
 30
0.0
  0
VERTEX
  8
1
  6
CONTINUOUS
 62
     3
  5
2EF
 10
718000.0
 20
5091000.0
 30
0.0
  0
VERTEX
  8
1
  6
CONTINUOUS
 62
     3
  5
2F0
 10
719000.0
 20
5091000.0
 30
0.0
  0
VERTEX
  8
1
  6
CONTINUOUS
 62
     3
  5
2F1
 10
719000.0
 20
5090000.0
 30
0.0
  0
SEQEND
  8
1
  6
CONTINUOUS
 62
     3
  5
2F2
  0
TEXT
  8
1
  6
CONTINUOUS
 62
     3
  5
2F3
 10
718483.86
 20
5090493.75
 30
0.0
 40
12.5
  1
102
  7
ROMANS
 72
     4
 11
718500.0
 21
5090500.0
 31
0.0
210
0.0
220
0.0
230
1.0
  0
POLYLINE
  8
1
  6
CONTINUOUS
 62
     3
  5
2F4
 66
     1
 10
0.0
 20
0.0
 30
0.0
 70
     1
210
0.0
220
0.0
230
1.0
  0
VERTEX
  8
1
  6
CONTINUOUS
 62
     3
  5
2F5
 10
717000.0
 20
5090000.0
 30
0.0
  0
VERTEX
  8
1
  6
CONTINUOUS
 62
     3
  5
2F6
 10
717000.0
 20
5091000.0
 30
0.0
  0
VERTEX
  8
1
  6
CONTINUOUS
 62
     3
  5
2F7
 10
718000.0
 20
5091000.0
 30
0.0
  0
VERTEX
  8
1
  6
CONTINUOUS
 62
     3
  5
2F8
 10
718000.0
 20
5090000.0
 30
0.0
  0
SEQEND
  8
1
  6
CONTINUOUS
 62
     3
  5
2F9
  0
TEXT
  8
1
  6
CONTINUOUS
 62
     3
  5
2FA
 10
717483.86
 20
5090493.75
 30
0.0
 40
12.5
  1
103
  7
ROMANS
 72
     4
 11
717500.0
 21
5090500.0
 31
0.0
210
0.0
220
0.0
230
1.0
  0
POLYLINE
  8
1
  6
CONTINUOUS
 62
     3
  5
2FB
 66
     1
 10
0.0
 20
0.0
 30
0.0
 70
     1
210
0.0
220
0.0
230
1.0
  0
VERTEX
  8
1
  6
CONTINUOUS
 62
     3
  5
2FC
 10
716000.0
 20
5090000.0
 30
0.0
  0
VERTEX
  8
1
  6
CONTINUOUS
 62
     3
  5
2FD
 10
716000.0
 20
5091000.0
 30
0.0
  0
VERTEX
  8
1
  6
CONTINUOUS
 62
     3
  5
2FE
 10
717000.0
 20
5091000.0
 30
0.0
  0
VERTEX
  8
1
  6
CONTINUOUS
 62
     3
  5
2FF
 10
717000.0
 20
5090000.0
 30
0.0
  0
SEQEND
  8
1
  6
CONTINUOUS
 62
     3
  5
300
  0
TEXT
  8
1
  6
CONTINUOUS
 62
     3
  5
301
 10
716483.86
 20
5090493.75
 30
0.0
 40
12.5
  1
104
  7
ROMANS
 72
     4
 11
716500.0
 21
5090500.0
 31
0.0
210
0.0
220
0.0
230
1.0
  0
POLYLINE
  8
1
  6
CONTINUOUS
 62
     3
  5
302
 66
     1
 10
0.0
 20
0.0
 30
0.0
 70
     1
210
0.0
220
0.0
230
1.0
  0
VERTEX
  8
1
  6
CONTINUOUS
 62
     3
  5
303
 10
702000.0
 20
5091000.0
 30
0.0
  0
VERTEX
  8
1
  6
CONTINUOUS
 62
     3
  5
304
 10
702000.0
 20
5092000.0
 30
0.0
  0
VERTEX
  8
1
  6
CONTINUOUS
 62
     3
  5
305
 10
703000.0
 20
5092000.0
 30
0.0
  0
VERTEX
  8
1
  6
CONTINUOUS
 62
     3
  5
306
 10
703000.0
 20
5091000.0
 30
0.0
  0
SEQEND
  8
1
  6
CONTINUOUS
 62
     3
  5
307
  0
TEXT
  8
1
  6
CONTINUOUS
 62
     3
  5
308
 10
702483.84
 20
5091493.75
 30
0.0
 40
12.5
  1
105
  7
ROMANS
 72
     4
 11
702500.0
 21
5091500.0
 31
0.0
210
0.0
220
0.0
230
1.0
  0
POLYLINE
  8
1
  6
CONTINUOUS
 62
     3
  5
309
 66
     1
 10
0.0
 20
0.0
 30
0.0
 70
     1
210
0.0
220
0.0
230
1.0
  0
VERTEX
  8
1
  6
CONTINUOUS
 62
     3
  5
30A
 10
702000.0
 20
5090000.0
 30
0.0
  0
VERTEX
  8
1
  6
CONTINUOUS
 62
     3
  5
30B
 10
702000.0
 20
5091000.0
 30
0.0
  0
VERTEX
  8
1
  6
CONTINUOUS
 62
     3
  5
30C
 10
703000.0
 20
5091000.0
 30
0.0
  0
VERTEX
  8
1
  6
CONTINUOUS
 62
     3
  5
30D
 10
703000.0
 20
5090000.0
 30
0.0
  0
SEQEND
  8
1
  6
CONTINUOUS
 62
     3
  5
30E
  0
TEXT
  8
1
  6
CONTINUOUS
 62
     3
  5
30F
 10
702483.56
 20
5090493.75
 30
0.0
 40
12.5
  1
106
  7
ROMANS
 72
     4
 11
702500.0
 21
5090500.0
 31
0.0
210
0.0
220
0.0
230
1.0
  0
POLYLINE
  8
1
  6
CONTINUOUS
 62
     3
  5
310
 66
     1
 10
0.0
 20
0.0
 30
0.0
 70
     1
210
0.0
220
0.0
230
1.0
  0
VERTEX
  8
1
  6
CONTINUOUS
 62
     3
  5
311
 10
701000.0
 20
5090000.0
 30
0.0
  0
VERTEX
  8
1
  6
CONTINUOUS
 62
     3
  5
312
 10
701000.0
 20
5091000.0
 30
0.0
  0
VERTEX
  8
1
  6
CONTINUOUS
 62
     3
  5
313
 10
702000.0
 20
5091000.0
 30
0.0
  0
VERTEX
  8
1
  6
CONTINUOUS
 62
     3
  5
314
 10
702000.0
 20
5090000.0
 30
0.0
  0
SEQEND
  8
1
  6
CONTINUOUS
 62
     3
  5
315
  0
TEXT
  8
1
  6
CONTINUOUS
 62
     3
  5
316
 10
701483.86
 20
5090493.75
 30
0.0
 40
12.5
  1
107
  7
ROMANS
 72
     4
 11
701500.0
 21
5090500.0
 31
0.0
210
0.0
220
0.0
230
1.0
  0
POLYLINE
  8
1
  6
CONTINUOUS
 62
     3
  5
317
 66
     1
 10
0.0
 20
0.0
 30
0.0
 70
     1
210
0.0
220
0.0
230
1.0
  0
VERTEX
  8
1
  6
CONTINUOUS
 62
     3
  5
318
 10
701000.0
 20
5091000.0
 30
0.0
  0
VERTEX
  8
1
  6
CONTINUOUS
 62
     3
  5
319
 10
701000.0
 20
5092000.0
 30
0.0
  0
VERTEX
  8
1
  6
CONTINUOUS
 62
     3
  5
31A
 10
702000.0
 20
5092000.0
 30
0.0
  0
VERTEX
  8
1
  6
CONTINUOUS
 62
     3
  5
31B
 10
702000.0
 20
5091000.0
 30
0.0
  0
SEQEND
  8
1
  6
CONTINUOUS
 62
     3
  5
31C
  0
TEXT
  8
1
  6
CONTINUOUS
 62
     3
  5
31D
 10
701483.86
 20
5091493.75
 30
0.0
 40
12.5
  1
108
  7
ROMANS
 72
     4
 11
701500.0
 21
5091500.0
 31
0.0
210
0.0
220
0.0
230
1.0
  0
POLYLINE
  8
1
  6
CONTINUOUS
 62
     3
  5
31E
 66
     1
 10
0.0
 20
0.0
 30
0.0
 70
     1
210
0.0
220
0.0
230
1.0
  0
VERTEX
  8
1
  6
CONTINUOUS
 62
     3
  5
31F
 10
700000.0
 20
5093000.0
 30
0.0
  0
VERTEX
  8
1
  6
CONTINUOUS
 62
     3
  5
320
 10
700000.0
 20
5094000.0
 30
0.0
  0
VERTEX
  8
1
  6
CONTINUOUS
 62
     3
  5
321
 10
701000.0
 20
5094000.0
 30
0.0
  0
VERTEX
  8
1
  6
CONTINUOUS
 62
     3
  5
322
 10
701000.0
 20
5093000.0
 30
0.0
  0
SEQEND
  8
1
  6
CONTINUOUS
 62
     3
  5
323
  0
TEXT
  8
1
  6
CONTINUOUS
 62
     3
  5
324
 10
700483.86
 20
5093493.75
 30
0.0
 40
12.5
  1
109
  7
ROMANS
 72
     4
 11
700500.0
 21
5093500.0
 31
0.0
210
0.0
220
0.0
230
1.0
  0
POLYLINE
  8
1
  6
CONTINUOUS
 62
     3
  5
325
 66
     1
 10
0.0
 20
0.0
 30
0.0
 70
     1
210
0.0
220
0.0
230
1.0
  0
VERTEX
  8
1
  6
CONTINUOUS
 62
     3
  5
326
 10
701000.0
 20
5093000.0
 30
0.0
  0
VERTEX
  8
1
  6
CONTINUOUS
 62
     3
  5
327
 10
701000.0
 20
5094000.0
 30
0.0
  0
VERTEX
  8
1
  6
CONTINUOUS
 62
     3
  5
328
 10
702000.0
 20
5094000.0
 30
0.0
  0
VERTEX
  8
1
  6
CONTINUOUS
 62
     3
  5
329
 10
702000.0
 20
5093000.0
 30
0.0
  0
SEQEND
  8
1
  6
CONTINUOUS
 62
     3
  5
32A
  0
TEXT
  8
1
  6
CONTINUOUS
 62
     3
  5
32B
 10
701483.36
 20
5093493.75
 30
0.0
 40
12.5
  1
110
  7
ROMANS
 72
     4
 11
701500.0
 21
5093500.0
 31
0.0
210
0.0
220
0.0
230
1.0
  0
POLYLINE
  8
1
  6
CONTINUOUS
 62
     3
  5
32C
 66
     1
 10
0.0
 20
0.0
 30
0.0
 70
     1
210
0.0
220
0.0
230
1.0
  0
VERTEX
  8
1
  6
CONTINUOUS
 62
     3
  5
32D
 10
700000.0
 20
5094000.0
 30
0.0
  0
VERTEX
  8
1
  6
CONTINUOUS
 62
     3
  5
32E
 10
700000.0
 20
5095000.0
 30
0.0
  0
VERTEX
  8
1
  6
CONTINUOUS
 62
     3
  5
32F
 10
701000.0
 20
5095000.0
 30
0.0
  0
VERTEX
  8
1
  6
CONTINUOUS
 62
     3
  5
330
 10
701000.0
 20
5094000.0
 30
0.0
  0
SEQEND
  8
1
  6
CONTINUOUS
 62
     3
  5
331
  0
TEXT
  8
1
  6
CONTINUOUS
 62
     3
  5
332
 10
700485.42
 20
5094493.75
 30
0.0
 40
12.5
  1
111
  7
ROMANS
 72
     4
 11
700500.0
 21
5094500.0
 31
0.0
210
0.0
220
0.0
230
1.0
  0
POLYLINE
  8
1
  6
CONTINUOUS
 62
     3
  5
333
 66
     1
 10
0.0
 20
0.0
 30
0.0
 70
     1
210
0.0
220
0.0
230
1.0
  0
VERTEX
  8
1
  6
CONTINUOUS
 62
     3
  5
334
 10
704000.0
 20
5089000.0
 30
0.0
  0
VERTEX
  8
1
  6
CONTINUOUS
 62
     3
  5
335
 10
704000.0
 20
5090000.0
 30
0.0
  0
VERTEX
  8
1
  6
CONTINUOUS
 62
     3
  5
336
 10
705000.0
 20
5090000.0
 30
0.0
  0
VERTEX
  8
1
  6
CONTINUOUS
 62
     3
  5
337
 10
705000.0
 20
5089000.0
 30
0.0
  0
SEQEND
  8
1
  6
CONTINUOUS
 62
     3
  5
338
  0
TEXT
  8
1
  6
CONTINUOUS
 62
     3
  5
339
 10
704483.86
 20
5089493.75
 30
0.0
 40
12.5
  1
112
  7
ROMANS
 72
     4
 11
704500.0
 21
5089500.0
 31
0.0
210
0.0
220
0.0
230
1.0
  0
POLYLINE
  8
1
  6
CONTINUOUS
 62
     3
  5
33A
 66
     1
 10
0.0
 20
0.0
 30
0.0
 70
     1
210
0.0
220
0.0
230
1.0
  0
VERTEX
  8
1
  6
CONTINUOUS
 62
     3
  5
33B
 10
705000.0
 20
5089000.0
 30
0.0
  0
VERTEX
  8
1
  6
CONTINUOUS
 62
     3
  5
33C
 10
705000.0
 20
5090000.0
 30
0.0
  0
VERTEX
  8
1
  6
CONTINUOUS
 62
     3
  5
33D
 10
706000.0
 20
5090000.0
 30
0.0
  0
VERTEX
  8
1
  6
CONTINUOUS
 62
     3
  5
33E
 10
706000.0
 20
5089000.0
 30
0.0
  0
SEQEND
  8
1
  6
CONTINUOUS
 62
     3
  5
33F
  0
TEXT
  8
1
  6
CONTINUOUS
 62
     3
  5
340
 10
705483.86
 20
5089493.75
 30
0.0
 40
12.5
  1
113
  7
ROMANS
 72
     4
 11
705500.0
 21
5089500.0
 31
0.0
210
0.0
220
0.0
230
1.0
  0
POLYLINE
  8
1
  6
CONTINUOUS
 62
     3
  5
341
 66
     1
 10
0.0
 20
0.0
 30
0.0
 70
     1
210
0.0
220
0.0
230
1.0
  0
VERTEX
  8
1
  6
CONTINUOUS
 62
     3
  5
342
 10
706000.0
 20
5089000.0
 30
0.0
  0
VERTEX
  8
1
  6
CONTINUOUS
 62
     3
  5
343
 10
706000.0
 20
5090000.0
 30
0.0
  0
VERTEX
  8
1
  6
CONTINUOUS
 62
     3
  5
344
 10
707000.0
 20
5090000.0
 30
0.0
  0
VERTEX
  8
1
  6
CONTINUOUS
 62
     3
  5
345
 10
707000.0
 20
5089000.0
 30
0.0
  0
SEQEND
  8
1
  6
CONTINUOUS
 62
     3
  5
346
  0
TEXT
  8
1
  6
CONTINUOUS
 62
     3
  5
347
 10
706483.86
 20
5089493.75
 30
0.0
 40
12.5
  1
114
  7
ROMANS
 72
     4
 11
706500.0
 21
5089500.0
 31
0.0
210
0.0
220
0.0
230
1.0
  0
POLYLINE
  8
1
  6
CONTINUOUS
 62
     3
  5
348
 66
     1
 10
0.0
 20
0.0
 30
0.0
 70
     1
210
0.0
220
0.0
230
1.0
  0
VERTEX
  8
1
  6
CONTINUOUS
 62
     3
  5
349
 10
707000.0
 20
5089000.0
 30
0.0
  0
VERTEX
  8
1
  6
CONTINUOUS
 62
     3
  5
34A
 10
707000.0
 20
5090000.0
 30
0.0
  0
VERTEX
  8
1
  6
CONTINUOUS
 62
     3
  5
34B
 10
708000.0
 20
5090000.0
 30
0.0
  0
VERTEX
  8
1
  6
CONTINUOUS
 62
     3
  5
34C
 10
708000.0
 20
5089000.0
 30
0.0
  0
SEQEND
  8
1
  6
CONTINUOUS
 62
     3
  5
34D
  0
TEXT
  8
1
  6
CONTINUOUS
 62
     3
  5
34E
 10
707483.84
 20
5089493.75
 30
0.0
 40
12.5
  1
115
  7
ROMANS
 72
     4
 11
707500.0
 21
5089500.0
 31
0.0
210
0.0
220
0.0
230
1.0
  0
POLYLINE
  8
1
  6
CONTINUOUS
 62
     3
  5
34F
 66
     1
 10
0.0
 20
0.0
 30
0.0
 70
     1
210
0.0
220
0.0
230
1.0
  0
VERTEX
  8
1
  6
CONTINUOUS
 62
     3
  5
350
 10
708000.0
 20
5089000.0
 30
0.0
  0
VERTEX
  8
1
  6
CONTINUOUS
 62
     3
  5
351
 10
708000.0
 20
5090000.0
 30
0.0
  0
VERTEX
  8
1
  6
CONTINUOUS
 62
     3
  5
352
 10
709000.0
 20
5090000.0
 30
0.0
  0
VERTEX
  8
1
  6
CONTINUOUS
 62
     3
  5
353
 10
709000.0
 20
5089000.0
 30
0.0
  0
SEQEND
  8
1
  6
CONTINUOUS
 62
     3
  5
354
  0
TEXT
  8
1
  6
CONTINUOUS
 62
     3
  5
355
 10
708483.56
 20
5089493.75
 30
0.0
 40
12.5
  1
116
  7
ROMANS
 72
     4
 11
708500.0
 21
5089500.0
 31
0.0
210
0.0
220
0.0
230
1.0
  0
POLYLINE
  8
1
  6
CONTINUOUS
 62
     3
  5
356
 66
     1
 10
0.0
 20
0.0
 30
0.0
 70
     1
210
0.0
220
0.0
230
1.0
  0
VERTEX
  8
1
  6
CONTINUOUS
 62
     3
  5
357
 10
709000.0
 20
5089000.0
 30
0.0
  0
VERTEX
  8
1
  6
CONTINUOUS
 62
     3
  5
358
 10
709000.0
 20
5090000.0
 30
0.0
  0
VERTEX
  8
1
  6
CONTINUOUS
 62
     3
  5
359
 10
710000.0
 20
5090000.0
 30
0.0
  0
VERTEX
  8
1
  6
CONTINUOUS
 62
     3
  5
35A
 10
710000.0
 20
5089000.0
 30
0.0
  0
SEQEND
  8
1
  6
CONTINUOUS
 62
     3
  5
35B
  0
TEXT
  8
1
  6
CONTINUOUS
 62
     3
  5
35C
 10
709483.86
 20
5089493.75
 30
0.0
 40
12.5
  1
117
  7
ROMANS
 72
     4
 11
709500.0
 21
5089500.0
 31
0.0
210
0.0
220
0.0
230
1.0
  0
POLYLINE
  8
1
  6
CONTINUOUS
 62
     3
  5
35D
 66
     1
 10
0.0
 20
0.0
 30
0.0
 70
     1
210
0.0
220
0.0
230
1.0
  0
VERTEX
  8
1
  6
CONTINUOUS
 62
     3
  5
35E
 10
710000.0
 20
5089000.0
 30
0.0
  0
VERTEX
  8
1
  6
CONTINUOUS
 62
     3
  5
35F
 10
710000.0
 20
5090000.0
 30
0.0
  0
VERTEX
  8
1
  6
CONTINUOUS
 62
     3
  5
360
 10
711000.0
 20
5090000.0
 30
0.0
  0
VERTEX
  8
1
  6
CONTINUOUS
 62
     3
  5
361
 10
711000.0
 20
5089000.0
 30
0.0
  0
SEQEND
  8
1
  6
CONTINUOUS
 62
     3
  5
362
  0
TEXT
  8
1
  6
CONTINUOUS
 62
     3
  5
363
 10
710483.86
 20
5089493.75
 30
0.0
 40
12.5
  1
118
  7
ROMANS
 72
     4
 11
710500.0
 21
5089500.0
 31
0.0
210
0.0
220
0.0
230
1.0
  0
POLYLINE
  8
1
  6
CONTINUOUS
 62
     3
  5
364
 66
     1
 10
0.0
 20
0.0
 30
0.0
 70
     1
210
0.0
220
0.0
230
1.0
  0
VERTEX
  8
1
  6
CONTINUOUS
 62
     3
  5
365
 10
715000.0
 20
5089000.0
 30
0.0
  0
VERTEX
  8
1
  6
CONTINUOUS
 62
     3
  5
366
 10
715000.0
 20
5090000.0
 30
0.0
  0
VERTEX
  8
1
  6
CONTINUOUS
 62
     3
  5
367
 10
716000.0
 20
5090000.0
 30
0.0
  0
VERTEX
  8
1
  6
CONTINUOUS
 62
     3
  5
368
 10
716000.0
 20
5089000.0
 30
0.0
  0
SEQEND
  8
1
  6
CONTINUOUS
 62
     3
  5
369
  0
TEXT
  8
1
  6
CONTINUOUS
 62
     3
  5
36A
 10
715483.86
 20
5089493.75
 30
0.0
 40
12.5
  1
119
  7
ROMANS
 72
     4
 11
715500.0
 21
5089500.0
 31
0.0
210
0.0
220
0.0
230
1.0
  0
POLYLINE
  8
1
  6
CONTINUOUS
 62
     3
  5
36B
 66
     1
 10
0.0
 20
0.0
 30
0.0
 70
     1
210
0.0
220
0.0
230
1.0
  0
VERTEX
  8
1
  6
CONTINUOUS
 62
     3
  5
36C
 10
717000.0
 20
5089000.0
 30
0.0
  0
VERTEX
  8
1
  6
CONTINUOUS
 62
     3
  5
36D
 10
717000.0
 20
5090000.0
 30
0.0
  0
VERTEX
  8
1
  6
CONTINUOUS
 62
     3
  5
36E
 10
718000.0
 20
5090000.0
 30
0.0
  0
VERTEX
  8
1
  6
CONTINUOUS
 62
     3
  5
36F
 10
718000.0
 20
5089000.0
 30
0.0
  0
SEQEND
  8
1
  6
CONTINUOUS
 62
     3
  5
370
  0
TEXT
  8
1
  6
CONTINUOUS
 62
     3
  5
371
 10
717483.36
 20
5089493.75
 30
0.0
 40
12.5
  1
120
  7
ROMANS
 72
     4
 11
717500.0
 21
5089500.0
 31
0.0
210
0.0
220
0.0
230
1.0
  0
POLYLINE
  8
1
  6
CONTINUOUS
 62
     3
  5
372
 66
     1
 10
0.0
 20
0.0
 30
0.0
 70
     1
210
0.0
220
0.0
230
1.0
  0
VERTEX
  8
1
  6
CONTINUOUS
 62
     3
  5
373
 10
716000.0
 20
5089000.0
 30
0.0
  0
VERTEX
  8
1
  6
CONTINUOUS
 62
     3
  5
374
 10
716000.0
 20
5090000.0
 30
0.0
  0
VERTEX
  8
1
  6
CONTINUOUS
 62
     3
  5
375
 10
717000.0
 20
5090000.0
 30
0.0
  0
VERTEX
  8
1
  6
CONTINUOUS
 62
     3
  5
376
 10
717000.0
 20
5089000.0
 30
0.0
  0
SEQEND
  8
1
  6
CONTINUOUS
 62
     3
  5
377
  0
TEXT
  8
1
  6
CONTINUOUS
 62
     3
  5
378
 10
716485.42
 20
5089493.75
 30
0.0
 40
12.5
  1
121
  7
ROMANS
 72
     4
 11
716500.0
 21
5089500.0
 31
0.0
210
0.0
220
0.0
230
1.0
  0
POLYLINE
  8
1
  6
CONTINUOUS
 62
     3
  5
379
 66
     1
 10
0.0
 20
0.0
 30
0.0
 70
     1
210
0.0
220
0.0
230
1.0
  0
VERTEX
  8
1
  6
CONTINUOUS
 62
     3
  5
37A
 10
714000.0
 20
5089000.0
 30
0.0
  0
VERTEX
  8
1
  6
CONTINUOUS
 62
     3
  5
37B
 10
714000.0
 20
5090000.0
 30
0.0
  0
VERTEX
  8
1
  6
CONTINUOUS
 62
     3
  5
37C
 10
715000.0
 20
5090000.0
 30
0.0
  0
VERTEX
  8
1
  6
CONTINUOUS
 62
     3
  5
37D
 10
715000.0
 20
5089000.0
 30
0.0
  0
SEQEND
  8
1
  6
CONTINUOUS
 62
     3
  5
37E
  0
TEXT
  8
1
  6
CONTINUOUS
 62
     3
  5
37F
 10
714483.86
 20
5089493.75
 30
0.0
 40
12.5
  1
122
  7
ROMANS
 72
     4
 11
714500.0
 21
5089500.0
 31
0.0
210
0.0
220
0.0
230
1.0
  0
POLYLINE
  8
1
  6
CONTINUOUS
 62
     3
  5
380
 66
     1
 10
0.0
 20
0.0
 30
0.0
 70
     1
210
0.0
220
0.0
230
1.0
  0
VERTEX
  8
1
  6
CONTINUOUS
 62
     3
  5
381
 10
713000.0
 20
5089000.0
 30
0.0
  0
VERTEX
  8
1
  6
CONTINUOUS
 62
     3
  5
382
 10
713000.0
 20
5090000.0
 30
0.0
  0
VERTEX
  8
1
  6
CONTINUOUS
 62
     3
  5
383
 10
714000.0
 20
5090000.0
 30
0.0
  0
VERTEX
  8
1
  6
CONTINUOUS
 62
     3
  5
384
 10
714000.0
 20
5089000.0
 30
0.0
  0
SEQEND
  8
1
  6
CONTINUOUS
 62
     3
  5
385
  0
TEXT
  8
1
  6
CONTINUOUS
 62
     3
  5
386
 10
713483.86
 20
5089493.75
 30
0.0
 40
12.5
  1
123
  7
ROMANS
 72
     4
 11
713500.0
 21
5089500.0
 31
0.0
210
0.0
220
0.0
230
1.0
  0
POLYLINE
  8
1
  6
CONTINUOUS
 62
     3
  5
387
 66
     1
 10
0.0
 20
0.0
 30
0.0
 70
     1
210
0.0
220
0.0
230
1.0
  0
VERTEX
  8
1
  6
CONTINUOUS
 62
     3
  5
388
 10
712000.0
 20
5089000.0
 30
0.0
  0
VERTEX
  8
1
  6
CONTINUOUS
 62
     3
  5
389
 10
712000.0
 20
5090000.0
 30
0.0
  0
VERTEX
  8
1
  6
CONTINUOUS
 62
     3
  5
38A
 10
713000.0
 20
5090000.0
 30
0.0
  0
VERTEX
  8
1
  6
CONTINUOUS
 62
     3
  5
38B
 10
713000.0
 20
5089000.0
 30
0.0
  0
SEQEND
  8
1
  6
CONTINUOUS
 62
     3
  5
38C
  0
TEXT
  8
1
  6
CONTINUOUS
 62
     3
  5
38D
 10
712483.86
 20
5089493.75
 30
0.0
 40
12.5
  1
124
  7
ROMANS
 72
     4
 11
712500.0
 21
5089500.0
 31
0.0
210
0.0
220
0.0
230
1.0
  0
POLYLINE
  8
1
  6
CONTINUOUS
 62
     3
  5
38E
 66
     1
 10
0.0
 20
0.0
 30
0.0
 70
     1
210
0.0
220
0.0
230
1.0
  0
VERTEX
  8
1
  6
CONTINUOUS
 62
     3
  5
38F
 10
711000.0
 20
5089000.0
 30
0.0
  0
VERTEX
  8
1
  6
CONTINUOUS
 62
     3
  5
390
 10
711000.0
 20
5090000.0
 30
0.0
  0
VERTEX
  8
1
  6
CONTINUOUS
 62
     3
  5
391
 10
712000.0
 20
5090000.0
 30
0.0
  0
VERTEX
  8
1
  6
CONTINUOUS
 62
     3
  5
392
 10
712000.0
 20
5089000.0
 30
0.0
  0
SEQEND
  8
1
  6
CONTINUOUS
 62
     3
  5
393
  0
TEXT
  8
1
  6
CONTINUOUS
 62
     3
  5
394
 10
711483.84
 20
5089493.75
 30
0.0
 40
12.5
  1
125
  7
ROMANS
 72
     4
 11
711500.0
 21
5089500.0
 31
0.0
210
0.0
220
0.0
230
1.0
  0
POLYLINE
  8
1
  6
CONTINUOUS
 62
     3
  5
395
 66
     1
 10
0.0
 20
0.0
 30
0.0
 70
     1
210
0.0
220
0.0
230
1.0
  0
VERTEX
  8
1
  6
CONTINUOUS
 62
     3
  5
396
 10
718000.0
 20
5089000.0
 30
0.0
  0
VERTEX
  8
1
  6
CONTINUOUS
 62
     3
  5
397
 10
718000.0
 20
5090000.0
 30
0.0
  0
VERTEX
  8
1
  6
CONTINUOUS
 62
     3
  5
398
 10
719000.0
 20
5090000.0
 30
0.0
  0
VERTEX
  8
1
  6
CONTINUOUS
 62
     3
  5
399
 10
719000.0
 20
5089000.0
 30
0.0
  0
SEQEND
  8
1
  6
CONTINUOUS
 62
     3
  5
39A
  0
TEXT
  8
1
  6
CONTINUOUS
 62
     3
  5
39B
 10
718483.56
 20
5089493.75
 30
0.0
 40
12.5
  1
126
  7
ROMANS
 72
     4
 11
718500.0
 21
5089500.0
 31
0.0
210
0.0
220
0.0
230
1.0
  0
POLYLINE
  8
1
  6
CONTINUOUS
 62
     3
  5
39C
 66
     1
 10
0.0
 20
0.0
 30
0.0
 70
     1
210
0.0
220
0.0
230
1.0
  0
VERTEX
  8
1
  6
CONTINUOUS
 62
     3
  5
39D
 10
704000.0
 20
5088000.0
 30
0.0
  0
VERTEX
  8
1
  6
CONTINUOUS
 62
     3
  5
39E
 10
704000.0
 20
5089000.0
 30
0.0
  0
VERTEX
  8
1
  6
CONTINUOUS
 62
     3
  5
39F
 10
705000.0
 20
5089000.0
 30
0.0
  0
VERTEX
  8
1
  6
CONTINUOUS
 62
     3
  5
3A0
 10
705000.0
 20
5088000.0
 30
0.0
  0
SEQEND
  8
1
  6
CONTINUOUS
 62
     3
  5
3A1
  0
TEXT
  8
1
  6
CONTINUOUS
 62
     3
  5
3A2
 10
704483.86
 20
5088493.75
 30
0.0
 40
12.5
  1
127
  7
ROMANS
 72
     4
 11
704500.0
 21
5088500.0
 31
0.0
210
0.0
220
0.0
230
1.0
  0
POLYLINE
  8
1
  6
CONTINUOUS
 62
     3
  5
3A3
 66
     1
 10
0.0
 20
0.0
 30
0.0
 70
     1
210
0.0
220
0.0
230
1.0
  0
VERTEX
  8
1
  6
CONTINUOUS
 62
     3
  5
3A4
 10
705000.0
 20
5088000.0
 30
0.0
  0
VERTEX
  8
1
  6
CONTINUOUS
 62
     3
  5
3A5
 10
705000.0
 20
5089000.0
 30
0.0
  0
VERTEX
  8
1
  6
CONTINUOUS
 62
     3
  5
3A6
 10
706000.0
 20
5089000.0
 30
0.0
  0
VERTEX
  8
1
  6
CONTINUOUS
 62
     3
  5
3A7
 10
706000.0
 20
5088000.0
 30
0.0
  0
SEQEND
  8
1
  6
CONTINUOUS
 62
     3
  5
3A8
  0
TEXT
  8
1
  6
CONTINUOUS
 62
     3
  5
3A9
 10
705483.86
 20
5088493.75
 30
0.0
 40
12.5
  1
128
  7
ROMANS
 72
     4
 11
705500.0
 21
5088500.0
 31
0.0
210
0.0
220
0.0
230
1.0
  0
POLYLINE
  8
1
  6
CONTINUOUS
 62
     3
  5
3AA
 66
     1
 10
0.0
 20
0.0
 30
0.0
 70
     1
210
0.0
220
0.0
230
1.0
  0
VERTEX
  8
1
  6
CONTINUOUS
 62
     3
  5
3AB
 10
706000.0
 20
5088000.0
 30
0.0
  0
VERTEX
  8
1
  6
CONTINUOUS
 62
     3
  5
3AC
 10
706000.0
 20
5089000.0
 30
0.0
  0
VERTEX
  8
1
  6
CONTINUOUS
 62
     3
  5
3AD
 10
707000.0
 20
5089000.0
 30
0.0
  0
VERTEX
  8
1
  6
CONTINUOUS
 62
     3
  5
3AE
 10
707000.0
 20
5088000.0
 30
0.0
  0
SEQEND
  8
1
  6
CONTINUOUS
 62
     3
  5
3AF
  0
TEXT
  8
1
  6
CONTINUOUS
 62
     3
  5
3B0
 10
706483.86
 20
5088493.75
 30
0.0
 40
12.5
  1
129
  7
ROMANS
 72
     4
 11
706500.0
 21
5088500.0
 31
0.0
210
0.0
220
0.0
230
1.0
  0
POLYLINE
  8
1
  6
CONTINUOUS
 62
     3
  5
3B1
 66
     1
 10
0.0
 20
0.0
 30
0.0
 70
     1
210
0.0
220
0.0
230
1.0
  0
VERTEX
  8
1
  6
CONTINUOUS
 62
     3
  5
3B2
 10
707000.0
 20
5088000.0
 30
0.0
  0
VERTEX
  8
1
  6
CONTINUOUS
 62
     3
  5
3B3
 10
707000.0
 20
5089000.0
 30
0.0
  0
VERTEX
  8
1
  6
CONTINUOUS
 62
     3
  5
3B4
 10
708000.0
 20
5089000.0
 30
0.0
  0
VERTEX
  8
1
  6
CONTINUOUS
 62
     3
  5
3B5
 10
708000.0
 20
5088000.0
 30
0.0
  0
SEQEND
  8
1
  6
CONTINUOUS
 62
     3
  5
3B6
  0
TEXT
  8
1
  6
CONTINUOUS
 62
     3
  5
3B7
 10
707483.36
 20
5088493.75
 30
0.0
 40
12.5
  1
130
  7
ROMANS
 72
     4
 11
707500.0
 21
5088500.0
 31
0.0
210
0.0
220
0.0
230
1.0
  0
POLYLINE
  8
1
  6
CONTINUOUS
 62
     3
  5
3B8
 66
     1
 10
0.0
 20
0.0
 30
0.0
 70
     1
210
0.0
220
0.0
230
1.0
  0
VERTEX
  8
1
  6
CONTINUOUS
 62
     3
  5
3B9
 10
713000.0
 20
5088000.0
 30
0.0
  0
VERTEX
  8
1
  6
CONTINUOUS
 62
     3
  5
3BA
 10
713000.0
 20
5089000.0
 30
0.0
  0
VERTEX
  8
1
  6
CONTINUOUS
 62
     3
  5
3BB
 10
714000.0
 20
5089000.0
 30
0.0
  0
VERTEX
  8
1
  6
CONTINUOUS
 62
     3
  5
3BC
 10
714000.0
 20
5088000.0
 30
0.0
  0
SEQEND
  8
1
  6
CONTINUOUS
 62
     3
  5
3BD
  0
TEXT
  8
1
  6
CONTINUOUS
 62
     3
  5
3BE
 10
713485.42
 20
5088493.75
 30
0.0
 40
12.5
  1
131
  7
ROMANS
 72
     4
 11
713500.0
 21
5088500.0
 31
0.0
210
0.0
220
0.0
230
1.0
  0
POLYLINE
  8
1
  6
CONTINUOUS
 62
     3
  5
3BF
 66
     1
 10
0.0
 20
0.0
 30
0.0
 70
     1
210
0.0
220
0.0
230
1.0
  0
VERTEX
  8
1
  6
CONTINUOUS
 62
     3
  5
3C0
 10
712000.0
 20
5088000.0
 30
0.0
  0
VERTEX
  8
1
  6
CONTINUOUS
 62
     3
  5
3C1
 10
712000.0
 20
5089000.0
 30
0.0
  0
VERTEX
  8
1
  6
CONTINUOUS
 62
     3
  5
3C2
 10
713000.0
 20
5089000.0
 30
0.0
  0
VERTEX
  8
1
  6
CONTINUOUS
 62
     3
  5
3C3
 10
713000.0
 20
5088000.0
 30
0.0
  0
SEQEND
  8
1
  6
CONTINUOUS
 62
     3
  5
3C4
  0
TEXT
  8
1
  6
CONTINUOUS
 62
     3
  5
3C5
 10
712483.86
 20
5088493.75
 30
0.0
 40
12.5
  1
132
  7
ROMANS
 72
     4
 11
712500.0
 21
5088500.0
 31
0.0
210
0.0
220
0.0
230
1.0
  0
POLYLINE
  8
1
  6
CONTINUOUS
 62
     3
  5
3C6
 66
     1
 10
0.0
 20
0.0
 30
0.0
 70
     1
210
0.0
220
0.0
230
1.0
  0
VERTEX
  8
1
  6
CONTINUOUS
 62
     3
  5
3C7
 10
711000.0
 20
5088000.0
 30
0.0
  0
VERTEX
  8
1
  6
CONTINUOUS
 62
     3
  5
3C8
 10
711000.0
 20
5089000.0
 30
0.0
  0
VERTEX
  8
1
  6
CONTINUOUS
 62
     3
  5
3C9
 10
712000.0
 20
5089000.0
 30
0.0
  0
VERTEX
  8
1
  6
CONTINUOUS
 62
     3
  5
3CA
 10
712000.0
 20
5088000.0
 30
0.0
  0
SEQEND
  8
1
  6
CONTINUOUS
 62
     3
  5
3CB
  0
TEXT
  8
1
  6
CONTINUOUS
 62
     3
  5
3CC
 10
711483.86
 20
5088493.75
 30
0.0
 40
12.5
  1
133
  7
ROMANS
 72
     4
 11
711500.0
 21
5088500.0
 31
0.0
210
0.0
220
0.0
230
1.0
  0
POLYLINE
  8
1
  6
CONTINUOUS
 62
     3
  5
3CD
 66
     1
 10
0.0
 20
0.0
 30
0.0
 70
     1
210
0.0
220
0.0
230
1.0
  0
VERTEX
  8
1
  6
CONTINUOUS
 62
     3
  5
3CE
 10
710000.0
 20
5088000.0
 30
0.0
  0
VERTEX
  8
1
  6
CONTINUOUS
 62
     3
  5
3CF
 10
710000.0
 20
5089000.0
 30
0.0
  0
VERTEX
  8
1
  6
CONTINUOUS
 62
     3
  5
3D0
 10
711000.0
 20
5089000.0
 30
0.0
  0
VERTEX
  8
1
  6
CONTINUOUS
 62
     3
  5
3D1
 10
711000.0
 20
5088000.0
 30
0.0
  0
SEQEND
  8
1
  6
CONTINUOUS
 62
     3
  5
3D2
  0
TEXT
  8
1
  6
CONTINUOUS
 62
     3
  5
3D3
 10
710483.86
 20
5088493.75
 30
0.0
 40
12.5
  1
134
  7
ROMANS
 72
     4
 11
710500.0
 21
5088500.0
 31
0.0
210
0.0
220
0.0
230
1.0
  0
POLYLINE
  8
1
  6
CONTINUOUS
 62
     3
  5
3D4
 66
     1
 10
0.0
 20
0.0
 30
0.0
 70
     1
210
0.0
220
0.0
230
1.0
  0
VERTEX
  8
1
  6
CONTINUOUS
 62
     3
  5
3D5
 10
709000.0
 20
5088000.0
 30
0.0
  0
VERTEX
  8
1
  6
CONTINUOUS
 62
     3
  5
3D6
 10
709000.0
 20
5089000.0
 30
0.0
  0
VERTEX
  8
1
  6
CONTINUOUS
 62
     3
  5
3D7
 10
710000.0
 20
5089000.0
 30
0.0
  0
VERTEX
  8
1
  6
CONTINUOUS
 62
     3
  5
3D8
 10
710000.0
 20
5088000.0
 30
0.0
  0
SEQEND
  8
1
  6
CONTINUOUS
 62
     3
  5
3D9
  0
TEXT
  8
1
  6
CONTINUOUS
 62
     3
  5
3DA
 10
709483.84
 20
5088493.75
 30
0.0
 40
12.5
  1
135
  7
ROMANS
 72
     4
 11
709500.0
 21
5088500.0
 31
0.0
210
0.0
220
0.0
230
1.0
  0
POLYLINE
  8
1
  6
CONTINUOUS
 62
     3
  5
3DB
 66
     1
 10
0.0
 20
0.0
 30
0.0
 70
     1
210
0.0
220
0.0
230
1.0
  0
VERTEX
  8
1
  6
CONTINUOUS
 62
     3
  5
3DC
 10
708000.0
 20
5088000.0
 30
0.0
  0
VERTEX
  8
1
  6
CONTINUOUS
 62
     3
  5
3DD
 10
708000.0
 20
5089000.0
 30
0.0
  0
VERTEX
  8
1
  6
CONTINUOUS
 62
     3
  5
3DE
 10
709000.0
 20
5089000.0
 30
0.0
  0
VERTEX
  8
1
  6
CONTINUOUS
 62
     3
  5
3DF
 10
709000.0
 20
5088000.0
 30
0.0
  0
SEQEND
  8
1
  6
CONTINUOUS
 62
     3
  5
3E0
  0
TEXT
  8
1
  6
CONTINUOUS
 62
     3
  5
3E1
 10
708483.56
 20
5088493.75
 30
0.0
 40
12.5
  1
136
  7
ROMANS
 72
     4
 11
708500.0
 21
5088500.0
 31
0.0
210
0.0
220
0.0
230
1.0
  0
POLYLINE
  8
1
  6
CONTINUOUS
 62
     3
  5
3E2
 66
     1
 10
0.0
 20
0.0
 30
0.0
 70
     1
210
0.0
220
0.0
230
1.0
  0
VERTEX
  8
1
  6
CONTINUOUS
 62
     3
  5
3E3
 10
714000.0
 20
5088000.0
 30
0.0
  0
VERTEX
  8
1
  6
CONTINUOUS
 62
     3
  5
3E4
 10
714000.0
 20
5089000.0
 30
0.0
  0
VERTEX
  8
1
  6
CONTINUOUS
 62
     3
  5
3E5
 10
715000.0
 20
5089000.0
 30
0.0
  0
VERTEX
  8
1
  6
CONTINUOUS
 62
     3
  5
3E6
 10
715000.0
 20
5088000.0
 30
0.0
  0
SEQEND
  8
1
  6
CONTINUOUS
 62
     3
  5
3E7
  0
TEXT
  8
1
  6
CONTINUOUS
 62
     3
  5
3E8
 10
714483.86
 20
5088493.75
 30
0.0
 40
12.5
  1
137
  7
ROMANS
 72
     4
 11
714500.0
 21
5088500.0
 31
0.0
210
0.0
220
0.0
230
1.0
  0
POLYLINE
  8
1
  6
CONTINUOUS
 62
     3
  5
3E9
 66
     1
 10
0.0
 20
0.0
 30
0.0
 70
     1
210
0.0
220
0.0
230
1.0
  0
VERTEX
  8
1
  6
CONTINUOUS
 62
     3
  5
3EA
 10
715000.0
 20
5088000.0
 30
0.0
  0
VERTEX
  8
1
  6
CONTINUOUS
 62
     3
  5
3EB
 10
715000.0
 20
5089000.0
 30
0.0
  0
VERTEX
  8
1
  6
CONTINUOUS
 62
     3
  5
3EC
 10
716000.0
 20
5089000.0
 30
0.0
  0
VERTEX
  8
1
  6
CONTINUOUS
 62
     3
  5
3ED
 10
716000.0
 20
5088000.0
 30
0.0
  0
SEQEND
  8
1
  6
CONTINUOUS
 62
     3
  5
3EE
  0
TEXT
  8
1
  6
CONTINUOUS
 62
     3
  5
3EF
 10
715483.86
 20
5088493.75
 30
0.0
 40
12.5
  1
138
  7
ROMANS
 72
     4
 11
715500.0
 21
5088500.0
 31
0.0
210
0.0
220
0.0
230
1.0
  0
POLYLINE
  8
1
  6
CONTINUOUS
 62
     3
  5
3F0
 66
     1
 10
0.0
 20
0.0
 30
0.0
 70
     1
210
0.0
220
0.0
230
1.0
  0
VERTEX
  8
1
  6
CONTINUOUS
 62
     3
  5
3F1
 10
718000.0
 20
5088000.0
 30
0.0
  0
VERTEX
  8
1
  6
CONTINUOUS
 62
     3
  5
3F2
 10
718000.0
 20
5089000.0
 30
0.0
  0
VERTEX
  8
1
  6
CONTINUOUS
 62
     3
  5
3F3
 10
719000.0
 20
5089000.0
 30
0.0
  0
VERTEX
  8
1
  6
CONTINUOUS
 62
     3
  5
3F4
 10
719000.0
 20
5088000.0
 30
0.0
  0
SEQEND
  8
1
  6
CONTINUOUS
 62
     3
  5
3F5
  0
TEXT
  8
1
  6
CONTINUOUS
 62
     3
  5
3F6
 10
718483.86
 20
5088493.75
 30
0.0
 40
12.5
  1
139
  7
ROMANS
 72
     4
 11
718500.0
 21
5088500.0
 31
0.0
210
0.0
220
0.0
230
1.0
  0
POLYLINE
  8
1
  6
CONTINUOUS
 62
     3
  5
3F7
 66
     1
 10
0.0
 20
0.0
 30
0.0
 70
     1
210
0.0
220
0.0
230
1.0
  0
VERTEX
  8
1
  6
CONTINUOUS
 62
     3
  5
3F8
 10
717000.0
 20
5088000.0
 30
0.0
  0
VERTEX
  8
1
  6
CONTINUOUS
 62
     3
  5
3F9
 10
717000.0
 20
5089000.0
 30
0.0
  0
VERTEX
  8
1
  6
CONTINUOUS
 62
     3
  5
3FA
 10
718000.0
 20
5089000.0
 30
0.0
  0
VERTEX
  8
1
  6
CONTINUOUS
 62
     3
  5
3FB
 10
718000.0
 20
5088000.0
 30
0.0
  0
SEQEND
  8
1
  6
CONTINUOUS
 62
     3
  5
3FC
  0
TEXT
  8
1
  6
CONTINUOUS
 62
     3
  5
3FD
 10
717483.36
 20
5088493.75
 30
0.0
 40
12.5
  1
140
  7
ROMANS
 72
     4
 11
717500.0
 21
5088500.0
 31
0.0
210
0.0
220
0.0
230
1.0
  0
POLYLINE
  8
1
  6
CONTINUOUS
 62
     3
  5
3FE
 66
     1
 10
0.0
 20
0.0
 30
0.0
 70
     1
210
0.0
220
0.0
230
1.0
  0
VERTEX
  8
1
  6
CONTINUOUS
 62
     3
  5
3FF
 10
716000.0
 20
5088000.0
 30
0.0
  0
VERTEX
  8
1
  6
CONTINUOUS
 62
     3
  5
400
 10
716000.0
 20
5089000.0
 30
0.0
  0
VERTEX
  8
1
  6
CONTINUOUS
 62
     3
  5
401
 10
717000.0
 20
5089000.0
 30
0.0
  0
VERTEX
  8
1
  6
CONTINUOUS
 62
     3
  5
402
 10
717000.0
 20
5088000.0
 30
0.0
  0
SEQEND
  8
1
  6
CONTINUOUS
 62
     3
  5
403
  0
TEXT
  8
1
  6
CONTINUOUS
 62
     3
  5
404
 10
716485.42
 20
5088493.75
 30
0.0
 40
12.5
  1
141
  7
ROMANS
 72
     4
 11
716500.0
 21
5088500.0
 31
0.0
210
0.0
220
0.0
230
1.0
  0
POLYLINE
  8
1
  6
CONTINUOUS
 62
     3
  5
405
 66
     1
 10
0.0
 20
0.0
 30
0.0
 70
     1
210
0.0
220
0.0
230
1.0
  0
VERTEX
  8
1
  6
CONTINUOUS
 62
     3
  5
406
 10
705000.0
 20
5087000.0
 30
0.0
  0
VERTEX
  8
1
  6
CONTINUOUS
 62
     3
  5
407
 10
705000.0
 20
5088000.0
 30
0.0
  0
VERTEX
  8
1
  6
CONTINUOUS
 62
     3
  5
408
 10
706000.0
 20
5088000.0
 30
0.0
  0
VERTEX
  8
1
  6
CONTINUOUS
 62
     3
  5
409
 10
706000.0
 20
5087000.0
 30
0.0
  0
SEQEND
  8
1
  6
CONTINUOUS
 62
     3
  5
40A
  0
TEXT
  8
1
  6
CONTINUOUS
 62
     3
  5
40B
 10
705483.86
 20
5087493.75
 30
0.0
 40
12.5
  1
142
  7
ROMANS
 72
     4
 11
705500.0
 21
5087500.0
 31
0.0
210
0.0
220
0.0
230
1.0
  0
POLYLINE
  8
1
  6
CONTINUOUS
 62
     3
  5
40C
 66
     1
 10
0.0
 20
0.0
 30
0.0
 70
     1
210
0.0
220
0.0
230
1.0
  0
VERTEX
  8
1
  6
CONTINUOUS
 62
     3
  5
40D
 10
706000.0
 20
5087000.0
 30
0.0
  0
VERTEX
  8
1
  6
CONTINUOUS
 62
     3
  5
40E
 10
706000.0
 20
5088000.0
 30
0.0
  0
VERTEX
  8
1
  6
CONTINUOUS
 62
     3
  5
40F
 10
707000.0
 20
5088000.0
 30
0.0
  0
VERTEX
  8
1
  6
CONTINUOUS
 62
     3
  5
410
 10
707000.0
 20
5087000.0
 30
0.0
  0
SEQEND
  8
1
  6
CONTINUOUS
 62
     3
  5
411
  0
TEXT
  8
1
  6
CONTINUOUS
 62
     3
  5
412
 10
706483.86
 20
5087493.75
 30
0.0
 40
12.5
  1
143
  7
ROMANS
 72
     4
 11
706500.0
 21
5087500.0
 31
0.0
210
0.0
220
0.0
230
1.0
  0
POLYLINE
  8
1
  6
CONTINUOUS
 62
     3
  5
413
 66
     1
 10
0.0
 20
0.0
 30
0.0
 70
     1
210
0.0
220
0.0
230
1.0
  0
VERTEX
  8
1
  6
CONTINUOUS
 62
     3
  5
414
 10
709000.0
 20
5087000.0
 30
0.0
  0
VERTEX
  8
1
  6
CONTINUOUS
 62
     3
  5
415
 10
709000.0
 20
5088000.0
 30
0.0
  0
VERTEX
  8
1
  6
CONTINUOUS
 62
     3
  5
416
 10
710000.0
 20
5088000.0
 30
0.0
  0
VERTEX
  8
1
  6
CONTINUOUS
 62
     3
  5
417
 10
710000.0
 20
5087000.0
 30
0.0
  0
SEQEND
  8
1
  6
CONTINUOUS
 62
     3
  5
418
  0
TEXT
  8
1
  6
CONTINUOUS
 62
     3
  5
419
 10
709483.86
 20
5087493.75
 30
0.0
 40
12.5
  1
144
  7
ROMANS
 72
     4
 11
709500.0
 21
5087500.0
 31
0.0
210
0.0
220
0.0
230
1.0
  0
POLYLINE
  8
1
  6
CONTINUOUS
 62
     3
  5
41A
 66
     1
 10
0.0
 20
0.0
 30
0.0
 70
     1
210
0.0
220
0.0
230
1.0
  0
VERTEX
  8
1
  6
CONTINUOUS
 62
     3
  5
41B
 10
708000.0
 20
5087000.0
 30
0.0
  0
VERTEX
  8
1
  6
CONTINUOUS
 62
     3
  5
41C
 10
708000.0
 20
5088000.0
 30
0.0
  0
VERTEX
  8
1
  6
CONTINUOUS
 62
     3
  5
41D
 10
709000.0
 20
5088000.0
 30
0.0
  0
VERTEX
  8
1
  6
CONTINUOUS
 62
     3
  5
41E
 10
709000.0
 20
5087000.0
 30
0.0
  0
SEQEND
  8
1
  6
CONTINUOUS
 62
     3
  5
41F
  0
TEXT
  8
1
  6
CONTINUOUS
 62
     3
  5
420
 10
708483.84
 20
5087493.75
 30
0.0
 40
12.5
  1
145
  7
ROMANS
 72
     4
 11
708500.0
 21
5087500.0
 31
0.0
210
0.0
220
0.0
230
1.0
  0
POLYLINE
  8
1
  6
CONTINUOUS
 62
     3
  5
421
 66
     1
 10
0.0
 20
0.0
 30
0.0
 70
     1
210
0.0
220
0.0
230
1.0
  0
VERTEX
  8
1
  6
CONTINUOUS
 62
     3
  5
422
 10
707000.0
 20
5087000.0
 30
0.0
  0
VERTEX
  8
1
  6
CONTINUOUS
 62
     3
  5
423
 10
707000.0
 20
5088000.0
 30
0.0
  0
VERTEX
  8
1
  6
CONTINUOUS
 62
     3
  5
424
 10
708000.0
 20
5088000.0
 30
0.0
  0
VERTEX
  8
1
  6
CONTINUOUS
 62
     3
  5
425
 10
708000.0
 20
5087000.0
 30
0.0
  0
SEQEND
  8
1
  6
CONTINUOUS
 62
     3
  5
426
  0
TEXT
  8
1
  6
CONTINUOUS
 62
     3
  5
427
 10
707483.56
 20
5087493.75
 30
0.0
 40
12.5
  1
146
  7
ROMANS
 72
     4
 11
707500.0
 21
5087500.0
 31
0.0
210
0.0
220
0.0
230
1.0
  0
POLYLINE
  8
1
  6
CONTINUOUS
 62
     3
  5
428
 66
     1
 10
0.0
 20
0.0
 30
0.0
 70
     1
210
0.0
220
0.0
230
1.0
  0
VERTEX
  8
1
  6
CONTINUOUS
 62
     3
  5
429
 10
710000.0
 20
5087000.0
 30
0.0
  0
VERTEX
  8
1
  6
CONTINUOUS
 62
     3
  5
42A
 10
710000.0
 20
5088000.0
 30
0.0
  0
VERTEX
  8
1
  6
CONTINUOUS
 62
     3
  5
42B
 10
711000.0
 20
5088000.0
 30
0.0
  0
VERTEX
  8
1
  6
CONTINUOUS
 62
     3
  5
42C
 10
711000.0
 20
5087000.0
 30
0.0
  0
SEQEND
  8
1
  6
CONTINUOUS
 62
     3
  5
42D
  0
TEXT
  8
1
  6
CONTINUOUS
 62
     3
  5
42E
 10
710483.86
 20
5087493.75
 30
0.0
 40
12.5
  1
147
  7
ROMANS
 72
     4
 11
710500.0
 21
5087500.0
 31
0.0
210
0.0
220
0.0
230
1.0
  0
POLYLINE
  8
1
  6
CONTINUOUS
 62
     3
  5
42F
 66
     1
 10
0.0
 20
0.0
 30
0.0
 70
     1
210
0.0
220
0.0
230
1.0
  0
VERTEX
  8
1
  6
CONTINUOUS
 62
     3
  5
430
 10
711000.0
 20
5087000.0
 30
0.0
  0
VERTEX
  8
1
  6
CONTINUOUS
 62
     3
  5
431
 10
711000.0
 20
5088000.0
 30
0.0
  0
VERTEX
  8
1
  6
CONTINUOUS
 62
     3
  5
432
 10
712000.0
 20
5088000.0
 30
0.0
  0
VERTEX
  8
1
  6
CONTINUOUS
 62
     3
  5
433
 10
712000.0
 20
5087000.0
 30
0.0
  0
SEQEND
  8
1
  6
CONTINUOUS
 62
     3
  5
434
  0
TEXT
  8
1
  6
CONTINUOUS
 62
     3
  5
435
 10
711483.86
 20
5087493.75
 30
0.0
 40
12.5
  1
148
  7
ROMANS
 72
     4
 11
711500.0
 21
5087500.0
 31
0.0
210
0.0
220
0.0
230
1.0
  0
POLYLINE
  8
1
  6
CONTINUOUS
 62
     3
  5
436
 66
     1
 10
0.0
 20
0.0
 30
0.0
 70
     1
210
0.0
220
0.0
230
1.0
  0
VERTEX
  8
1
  6
CONTINUOUS
 62
     3
  5
437
 10
712000.0
 20
5087000.0
 30
0.0
  0
VERTEX
  8
1
  6
CONTINUOUS
 62
     3
  5
438
 10
712000.0
 20
5088000.0
 30
0.0
  0
VERTEX
  8
1
  6
CONTINUOUS
 62
     3
  5
439
 10
713000.0
 20
5088000.0
 30
0.0
  0
VERTEX
  8
1
  6
CONTINUOUS
 62
     3
  5
43A
 10
713000.0
 20
5087000.0
 30
0.0
  0
SEQEND
  8
1
  6
CONTINUOUS
 62
     3
  5
43B
  0
TEXT
  8
1
  6
CONTINUOUS
 62
     3
  5
43C
 10
712483.86
 20
5087493.75
 30
0.0
 40
12.5
  1
149
  7
ROMANS
 72
     4
 11
712500.0
 21
5087500.0
 31
0.0
210
0.0
220
0.0
230
1.0
  0
POLYLINE
  8
1
  6
CONTINUOUS
 62
     3
  5
43D
 66
     1
 10
0.0
 20
0.0
 30
0.0
 70
     1
210
0.0
220
0.0
230
1.0
  0
VERTEX
  8
1
  6
CONTINUOUS
 62
     3
  5
43E
 10
713000.0
 20
5087000.0
 30
0.0
  0
VERTEX
  8
1
  6
CONTINUOUS
 62
     3
  5
43F
 10
713000.0
 20
5088000.0
 30
0.0
  0
VERTEX
  8
1
  6
CONTINUOUS
 62
     3
  5
440
 10
714000.0
 20
5088000.0
 30
0.0
  0
VERTEX
  8
1
  6
CONTINUOUS
 62
     3
  5
441
 10
714000.0
 20
5087000.0
 30
0.0
  0
SEQEND
  8
1
  6
CONTINUOUS
 62
     3
  5
442
  0
TEXT
  8
1
  6
CONTINUOUS
 62
     3
  5
443
 10
713483.36
 20
5087493.75
 30
0.0
 40
12.5
  1
150
  7
ROMANS
 72
     4
 11
713500.0
 21
5087500.0
 31
0.0
210
0.0
220
0.0
230
1.0
  0
POLYLINE
  8
1
  6
CONTINUOUS
 62
     3
  5
444
 66
     1
 10
0.0
 20
0.0
 30
0.0
 70
     1
210
0.0
220
0.0
230
1.0
  0
VERTEX
  8
1
  6
CONTINUOUS
 62
     3
  5
445
 10
714000.0
 20
5087000.0
 30
0.0
  0
VERTEX
  8
1
  6
CONTINUOUS
 62
     3
  5
446
 10
714000.0
 20
5088000.0
 30
0.0
  0
VERTEX
  8
1
  6
CONTINUOUS
 62
     3
  5
447
 10
715000.0
 20
5088000.0
 30
0.0
  0
VERTEX
  8
1
  6
CONTINUOUS
 62
     3
  5
448
 10
715000.0
 20
5087000.0
 30
0.0
  0
SEQEND
  8
1
  6
CONTINUOUS
 62
     3
  5
449
  0
TEXT
  8
1
  6
CONTINUOUS
 62
     3
  5
44A
 10
714485.42
 20
5087493.75
 30
0.0
 40
12.5
  1
151
  7
ROMANS
 72
     4
 11
714500.0
 21
5087500.0
 31
0.0
210
0.0
220
0.0
230
1.0
  0
POLYLINE
  8
1
  6
CONTINUOUS
 62
     3
  5
44B
 66
     1
 10
0.0
 20
0.0
 30
0.0
 70
     1
210
0.0
220
0.0
230
1.0
  0
VERTEX
  8
1
  6
CONTINUOUS
 62
     3
  5
44C
 10
715000.0
 20
5087000.0
 30
0.0
  0
VERTEX
  8
1
  6
CONTINUOUS
 62
     3
  5
44D
 10
715000.0
 20
5088000.0
 30
0.0
  0
VERTEX
  8
1
  6
CONTINUOUS
 62
     3
  5
44E
 10
716000.0
 20
5088000.0
 30
0.0
  0
VERTEX
  8
1
  6
CONTINUOUS
 62
     3
  5
44F
 10
716000.0
 20
5087000.0
 30
0.0
  0
SEQEND
  8
1
  6
CONTINUOUS
 62
     3
  5
450
  0
TEXT
  8
1
  6
CONTINUOUS
 62
     3
  5
451
 10
715483.86
 20
5087493.75
 30
0.0
 40
12.5
  1
152
  7
ROMANS
 72
     4
 11
715500.0
 21
5087500.0
 31
0.0
210
0.0
220
0.0
230
1.0
  0
POLYLINE
  8
1
  6
CONTINUOUS
 62
     3
  5
452
 66
     1
 10
0.0
 20
0.0
 30
0.0
 70
     1
210
0.0
220
0.0
230
1.0
  0
VERTEX
  8
1
  6
CONTINUOUS
 62
     3
  5
453
 10
713000.0
 20
5085000.0
 30
0.0
  0
VERTEX
  8
1
  6
CONTINUOUS
 62
     3
  5
454
 10
713000.0
 20
5086000.0
 30
0.0
  0
VERTEX
  8
1
  6
CONTINUOUS
 62
     3
  5
455
 10
714000.0
 20
5086000.0
 30
0.0
  0
VERTEX
  8
1
  6
CONTINUOUS
 62
     3
  5
456
 10
714000.0
 20
5085000.0
 30
0.0
  0
SEQEND
  8
1
  6
CONTINUOUS
 62
     3
  5
457
  0
TEXT
  8
1
  6
CONTINUOUS
 62
     3
  5
458
 10
713483.86
 20
5085493.75
 30
0.0
 40
12.5
  1
153
  7
ROMANS
 72
     4
 11
713500.0
 21
5085500.0
 31
0.0
210
0.0
220
0.0
230
1.0
  0
POLYLINE
  8
1
  6
CONTINUOUS
 62
     3
  5
459
 66
     1
 10
0.0
 20
0.0
 30
0.0
 70
     1
210
0.0
220
0.0
230
1.0
  0
VERTEX
  8
1
  6
CONTINUOUS
 62
     3
  5
45A
 10
714000.0
 20
5085000.0
 30
0.0
  0
VERTEX
  8
1
  6
CONTINUOUS
 62
     3
  5
45B
 10
714000.0
 20
5086000.0
 30
0.0
  0
VERTEX
  8
1
  6
CONTINUOUS
 62
     3
  5
45C
 10
715000.0
 20
5086000.0
 30
0.0
  0
VERTEX
  8
1
  6
CONTINUOUS
 62
     3
  5
45D
 10
715000.0
 20
5085000.0
 30
0.0
  0
SEQEND
  8
1
  6
CONTINUOUS
 62
     3
  5
45E
  0
TEXT
  8
1
  6
CONTINUOUS
 62
     3
  5
45F
 10
714483.86
 20
5085493.75
 30
0.0
 40
12.5
  1
154
  7
ROMANS
 72
     4
 11
714500.0
 21
5085500.0
 31
0.0
210
0.0
220
0.0
230
1.0
  0
POLYLINE
  8
1
  6
CONTINUOUS
 62
     3
  5
460
 66
     1
 10
0.0
 20
0.0
 30
0.0
 70
     1
210
0.0
220
0.0
230
1.0
  0
VERTEX
  8
1
  6
CONTINUOUS
 62
     3
  5
461
 10
714000.0
 20
5086000.0
 30
0.0
  0
VERTEX
  8
1
  6
CONTINUOUS
 62
     3
  5
462
 10
714000.0
 20
5087000.0
 30
0.0
  0
VERTEX
  8
1
  6
CONTINUOUS
 62
     3
  5
463
 10
715000.0
 20
5087000.0
 30
0.0
  0
VERTEX
  8
1
  6
CONTINUOUS
 62
     3
  5
464
 10
715000.0
 20
5086000.0
 30
0.0
  0
SEQEND
  8
1
  6
CONTINUOUS
 62
     3
  5
465
  0
TEXT
  8
1
  6
CONTINUOUS
 62
     3
  5
466
 10
714483.84
 20
5086493.75
 30
0.0
 40
12.5
  1
155
  7
ROMANS
 72
     4
 11
714500.0
 21
5086500.0
 31
0.0
210
0.0
220
0.0
230
1.0
  0
POLYLINE
  8
1
  6
CONTINUOUS
 62
     3
  5
467
 66
     1
 10
0.0
 20
0.0
 30
0.0
 70
     1
210
0.0
220
0.0
230
1.0
  0
VERTEX
  8
1
  6
CONTINUOUS
 62
     3
  5
468
 10
713000.0
 20
5086000.0
 30
0.0
  0
VERTEX
  8
1
  6
CONTINUOUS
 62
     3
  5
469
 10
713000.0
 20
5087000.0
 30
0.0
  0
VERTEX
  8
1
  6
CONTINUOUS
 62
     3
  5
46A
 10
714000.0
 20
5087000.0
 30
0.0
  0
VERTEX
  8
1
  6
CONTINUOUS
 62
     3
  5
46B
 10
714000.0
 20
5086000.0
 30
0.0
  0
SEQEND
  8
1
  6
CONTINUOUS
 62
     3
  5
46C
  0
TEXT
  8
1
  6
CONTINUOUS
 62
     3
  5
46D
 10
713483.56
 20
5086493.75
 30
0.0
 40
12.5
  1
156
  7
ROMANS
 72
     4
 11
713500.0
 21
5086500.0
 31
0.0
210
0.0
220
0.0
230
1.0
  0
POLYLINE
  8
1
  6
CONTINUOUS
 62
     3
  5
46E
 66
     1
 10
0.0
 20
0.0
 30
0.0
 70
     1
210
0.0
220
0.0
230
1.0
  0
VERTEX
  8
1
  6
CONTINUOUS
 62
     3
  5
46F
 10
702000.0
 20
5093000.0
 30
0.0
  0
VERTEX
  8
1
  6
CONTINUOUS
 62
     3
  5
470
 10
702000.0
 20
5094000.0
 30
0.0
  0
VERTEX
  8
1
  6
CONTINUOUS
 62
     3
  5
471
 10
703000.0
 20
5094000.0
 30
0.0
  0
VERTEX
  8
1
  6
CONTINUOUS
 62
     3
  5
472
 10
703000.0
 20
5093000.0
 30
0.0
  0
SEQEND
  8
1
  6
CONTINUOUS
 62
     3
  5
473
  0
TEXT
  8
1
  6
CONTINUOUS
 62
     3
  5
474
 10
702483.86
 20
5093493.75
 30
0.0
 40
12.5
  1
157
  7
ROMANS
 72
     4
 11
702500.0
 21
5093500.0
 31
0.0
210
0.0
220
0.0
230
1.0
  0
POLYLINE
  8
1
  6
CONTINUOUS
 62
     3
  5
475
 66
     1
 10
0.0
 20
0.0
 30
0.0
 70
     1
210
0.0
220
0.0
230
1.0
  0
VERTEX
  8
1
  6
CONTINUOUS
 62
     3
  5
476
 10
701000.0
 20
5092000.0
 30
0.0
  0
VERTEX
  8
1
  6
CONTINUOUS
 62
     3
  5
477
 10
701000.0
 20
5093000.0
 30
0.0
  0
VERTEX
  8
1
  6
CONTINUOUS
 62
     3
  5
478
 10
702000.0
 20
5093000.0
 30
0.0
  0
VERTEX
  8
1
  6
CONTINUOUS
 62
     3
  5
479
 10
702000.0
 20
5092000.0
 30
0.0
  0
SEQEND
  8
1
  6
CONTINUOUS
 62
     3
  5
47A
  0
TEXT
  8
1
  6
CONTINUOUS
 62
     3
  5
47B
 10
701483.86
 20
5092493.75
 30
0.0
 40
12.5
  1
158
  7
ROMANS
 72
     4
 11
701500.0
 21
5092500.0
 31
0.0
210
0.0
220
0.0
230
1.0
  0
ENDSEC
  0
EOF
