  0
SECTION
  2
HEADER
  9
$ACADVER
  1
AC1009
  9
$INSBASE
 10
0.0
 20
0.0
 30
0.0
  9
$EXTMIN
 10
706803.08
 20
5087750.83
 30
0.0
  9
$EXTMAX
 10
715803.08
 20
5095750.83
 30
0.0
  9
$LIMMIN
 10
0.0
 20
0.0
  9
$LIMMAX
 10
12.0
 20
9.0
  9
$ORTHOMODE
 70
     0
  9
$REGENMODE
 70
     1
  9
$FILLMODE
 70
     1
  9
$QTEXTMODE
 70
     0
  9
$MIRRTEXT
 70
     1
  9
$DRAGMODE
 70
     2
  9
$LTSCALE
 40
1.0
  9
$OSMODE
 70
     0
  9
$ATTMODE
 70
     1
  9
$TEXTSIZE
 40
0.2
  9
$TRACEWID
 40
0.05
  9
$TEXTSTYLE
  7
STANDARD
  9
$CLAYER
  8
0
  9
$CELTYPE
  6
CONTINUOUS
  9
$CECOLOR
 62
   256
  9
$DIMSCALE
 40
1.0
  9
$DIMASZ
 40
0.18
  9
$DIMEXO
 40
0.0625
  9
$DIMDLI
 40
0.38
  9
$DIMRND
 40
0.0
  9
$DIMDLE
 40
0.0
  9
$DIMEXE
 40
0.18
  9
$DIMTP
 40
0.0
  9
$DIMTM
 40
0.0
  9
$DIMTXT
 40
0.18
  9
$DIMCEN
 40
0.09
  9
$DIMTSZ
 40
0.0
  9
$DIMTOL
 70
     0
  9
$DIMLIM
 70
     0
  9
$DIMTIH
 70
     1
  9
$DIMTOH
 70
     1
  9
$DIMSE1
 70
     0
  9
$DIMSE2
 70
     0
  9
$DIMTAD
 70
     0
  9
$DIMZIN
 70
     0
  9
$DIMBLK
  1

  9
$DIMASO
 70
     1
  9
$DIMSHO
 70
     1
  9
$DIMPOST
  1

  9
$DIMAPOST
  1

  9
$DIMALT
 70
     0
  9
$DIMALTD
 70
     2
  9
$DIMALTF
 40
25.4
  9
$DIMLFAC
 40
1.0
  9
$DIMTOFL
 70
     0
  9
$DIMTVP
 40
0.0
  9
$DIMTIX
 70
     0
  9
$DIMSOXD
 70
     0
  9
$DIMSAH
 70
     0
  9
$DIMBLK1
  1

  9
$DIMBLK2
  1

  9
$DIMSTYLE
  2
STANDARD
  9
$DIMCLRD
 70
     0
  9
$DIMCLRE
 70
     0
  9
$DIMCLRT
 70
     0
  9
$DIMTFAC
 40
1.0
  9
$DIMGAP
 40
0.09
  9
$LUNITS
 70
     2
  9
$LUPREC
 70
     4
  9
$AXISMODE
 70
     0
  9
$AXISUNIT
 10
0.0
 20
0.0
  9
$SKETCHINC
 40
0.1
  9
$FILLETRAD
 40
0.0
  9
$AUNITS
 70
     0
  9
$AUPREC
 70
     0
  9
$MENU
  1
acad
  9
$ELEVATION
 40
0.0
  9
$PELEVATION
 40
0.0
  9
$THICKNESS
 40
0.0
  9
$LIMCHECK
 70
     0
  9
$BLIPMODE
 70
     1
  9
$CHAMFERA
 40
0.0
  9
$CHAMFERB
 40
0.0
  9
$SKPOLY
 70
     0
  9
$TDCREATE
 40
2453875.388113426
  9
$TDUPDATE
 40
2453875.388113426
  9
$TDINDWG
 40
0.0000000000
  9
$TDUSRTIMER
 40
0.0000000000
  9
$USRTIMER
 70
     1
  9
$ANGBASE
 50
0.0
  9
$ANGDIR
 70
     0
  9
$PDMODE
 70
     0
  9
$PDSIZE
 40
0.0
  9
$PLINEWID
 40
0.0
  9
$COORDS
 70
     0
  9
$SPLFRAME
 70
     0
  9
$SPLINETYPE
 70
     6
  9
$SPLINESEGS
 70
    10
  9
$ATTDIA
 70
     0
  9
$ATTREQ
 70
     1
  9
$HANDLING
 70
     1
  9
$HANDSEED
  5
203
  9
$SURFTAB1
 70
     6
  9
$SURFTAB2
 70
     6
  9
$SURFTYPE
 70
     6
  9
$SURFU
 70
     6
  9
$SURFV
 70
     6
  9
$UCSNAME
  2

  9
$UCSORG
 10
0.0
 20
0.0
 30
0.0
  9
$UCSXDIR
 10
1.0
 20
0.0
 30
0.0
  9
$UCSYDIR
 10
0.0
 20
1.0
 30
0.0
  9
$PUCSNAME
  2

  9
$PUCSORG
 10
0.0
 20
0.0
 30
0.0
  9
$PUCSXDIR
 10
1.0
 20
0.0
 30
0.0
  9
$PUCSYDIR
 10
0.0
 20
1.0
 30
0.0
  9
$USERI1
 70
     0
  9
$USERI2
 70
     0
  9
$USERI3
 70
     0
  9
$USERI4
 70
     0
  9
$USERI5
 70
     0
  9
$USERR1
 40
0.0
  9
$USERR2
 40
0.0
  9
$USERR3
 40
0.0
  9
$USERR4
 40
0.0
  9
$USERR5
 40
0.0
  9
$WORLDVIEW
 70
     1
  9
$SHADEDGE
 70
     3
  9
$SHADEDIF
 70
    70
  9
$TILEMODE
 70
     1
  9
$MAXACTVP
 70
    16
  9
$PINSBASE
 10
0.0
 20
0.0
 30
0.0
  9
$PLIMCHECK
 70
     0
  9
$PEXTMIN
 10
-1.000000E+20
 20
-1.000000E+20
 30
-1.000000E+20
  9
$PEXTMAX
 10
-1.000000E+20
 20
-1.000000E+20
 30
-1.000000E+20
  9
$PLIMMIN
 10
0.0
 20
0.0
  9
$PLIMMAX
 10
12.0
 20
9.0
  9
$UNITMODE
 70
     0
  9
$VISRETAIN
 70
     0
  9
$PLINEGEN
 70
     1
  9
$PSLTSCALE
 70
     0
  9
$TREEDEPTH
 70
  3020
  9
$DWGCODEPAGE
  3
ansi_1252
  0
ENDSEC
  0
SECTION
  2
TABLES
  0
TABLE
  2
VPORT
 70
     2
  0
VPORT
  2
*ACTIVE
 70
     0
 10
0.001022
 20
0.218326
 11
1.0
 21
0.998869
 12
0.0
 22
0.0
 13
0.0
 23
0.0
 14
0.0
 24
0.0
 15
0.0
 25
0.0
 16
0.0
 26
0.0
 36
1.0
 17
708072.959638
 27
5091564.04
 37
0.0
 40
14888.9
 41
1.415942
 42
50.0
 43
5000.0
 44
-5000.0
 50
0.0
 51
0.0
 71
    22
 72
   100
 73
     1
 74
     0
 75
     0
 76
     0
 77
     0
 78
     0
  0
VPORT
  2
*ACTIVE
 70
     0
 10
0.001022
 20
0.001131
 11
1.0
 21
0.216063
 12
0.0
 22
0.0
 13
0.0
 23
0.0
 14
0.0
 24
0.0
 15
0.0
 25
0.0
 16
0.27984
 26
-0.960047
 36
0.0
 17
711968.809315
 27
5093621.612312
 37
468.265
 40
13.99
 41
5.142105
 42
50.0
 43
1.42
 44
-1.42
 50
0.0
 51
0.0
 71
    22
 72
   100
 73
     1
 74
     0
 75
     0
 76
     0
 77
     0
 78
     0
  0
ENDTAB
  0
TABLE
  2
LTYPE
 70
     7
  0
LTYPE
  2
CONTINUOUS
 70
     0
  3
Solid line
 72
    65
 73
     0
 40
0.0
  0
LTYPE
  2
DOT
 70
    64
  3
. . . . . . . . . . . . . . . . . . . . . . . . . . . . . . . . .
 72
    65
 73
     2
 40
0.25
 49
0.0
 49
-0.25
  0
LTYPE
  2
HIDDEN
 70
    64
  3
__ __ __ __ __ __ __ __ __ __ __ __ __ __ __ __ __ __ __ __ __ 
 72
    65
 73
     2
 40
0.375
 49
0.25
 49
-0.125
  0
LTYPE
  2
DASHED
 70
    64
  3
__ __ __ __ __ __ __ __ __ __ __ __ __ __ __ __ __ __ __ __ __
 72
    65
 73
     2
 40
0.75
 49
0.5
 49
-0.25
  0
LTYPE
  2
DASHDOT
 70
    64
  3
__ . __ . __ . __ . __ . __ . __ . __ . __ . __ . __ . __ . _
 72
    65
 73
     4
 40
1.0
 49
0.5
 49
-0.25
 49
0.0
 49
-0.25
  0
LTYPE
  2
DIVIDE
 70
    64
  3
____ . . ____ . . ____ . . ____ . . ____ . . ____ . . ____ . .
 72
    65
 73
     6
 40
1.25
 49
0.5
 49
-0.25
 49
0.0
 49
-0.25
 49
0.0
 49
-0.25
  0
LTYPE
  2
CENTER
 70
    64
  3
____ _ ____ _ ____ _ ____ _ ____ _ ____ _ ____ _ ____ _ ____ _
 72
    65
 73
     4
 40
2.0
 49
1.25
 49
-0.25
 49
0.25
 49
-0.25
  0
ENDTAB
  0
TABLE
  2
LAYER
 70
     4
  0
LAYER
  2
0
 70
     0
 62
     7
  6
CONTINUOUS
  0
LAYER
  2
CONSTRUCTION_CLASS
 70
     0
 62
     7
  6
CONTINUOUS
  0
LAYER
  2
PATTERN_CLASS
 70
     0
 62
     7
  6
CONTINUOUS
  0
LAYER
  2
4
 70
    64
 62
     7
  6
CONTINUOUS
  0
ENDTAB
  0
TABLE
  2
STYLE
 70
     2
  0
STYLE
  2
STANDARD
 70
     0
 40
0.0
 41
1.0
 50
0.0
 71
     0
 42
0.0
  3
txt
  4

  0
STYLE
  2
ROMANS
 70
     0
 40
0.2
 41
1.0
 50
0.0
 71
     0
 42
0.2
  3
ROMANS
  4

  0
ENDTAB
  0
TABLE
  2
VIEW
 70
     0
  0
ENDTAB
  0
TABLE
  2
UCS
 70
     0
  0
ENDTAB
  0
TABLE
  2
APPID
 70
     1
  0
APPID
  2
ACAD
 70
     0
  0
ENDTAB
  0
TABLE
  2
DIMSTYLE
 70
     1
  0
DIMSTYLE
  2
STANDARD
 70
     0
  3

  4

  5

  6

  7

 40
1.0
 41
0.18
 42
0.0625
 43
0.38
 44
0.18
 45
0.0
 46
0.0
 47
0.0
 48
0.0
140
0.18
141
0.09
142
0.0
143
25.4
144
1.0
145
0.0
146
1.0
147
0.09
 71
     0
 72
     0
 73
     1
 74
     1
 75
     0
 76
     0
 77
     0
 78
     0
170
     0
171
     2
172
     0
173
     0
174
     0
175
     0
176
     0
177
     0
178
     0
  0
ENDTAB
  0
ENDSEC
  0
SECTION
  2
BLOCKS
  0
ENDSEC
  0
SECTION
  2
ENTITIES
  0
POLYLINE
  8
4
  6
CONTINUOUS
 62
     3
  5
29
 66
     1
 10
0.0
 20
0.0
 30
0.0
 70
     1
210
0.0
220
0.0
230
1.0
  0
VERTEX
  8
4
  6
CONTINUOUS
 62
     3
  5
2A
 10
706803.08
 20
5094750.83
 30
0.0
  0
VERTEX
  8
4
  6
CONTINUOUS
 62
     3
  5
2B
 10
706803.08
 20
5095750.83
 30
0.0
  0
VERTEX
  8
4
  6
CONTINUOUS
 62
     3
  5
2C
 10
707803.08
 20
5095750.83
 30
0.0
  0
VERTEX
  8
4
  6
CONTINUOUS
 62
     3
  5
2D
 10
707803.08
 20
5094750.83
 30
0.0
  0
SEQEND
  8
4
  6
CONTINUOUS
 62
     3
  5
2E
  0
TEXT
  8
4
  6
CONTINUOUS
 62
     3
  5
30
 10
707169.74
 20
5095150.83
 30
0.0
 40
200.0
  1
01
  7
ROMANS
 72
     4
 11
707303.08
 21
5095250.83
 31
0.0
210
0.0
220
0.0
230
1.0
  0
POLYLINE
  8
4
  6
CONTINUOUS
 62
     3
  5
31
 66
     1
 10
0.0
 20
0.0
 30
0.0
 70
     1
210
0.0
220
0.0
230
1.0
  0
VERTEX
  8
4
  6
CONTINUOUS
 62
     3
  5
32
 10
707803.08
 20
5094750.83
 30
0.0
  0
VERTEX
  8
4
  6
CONTINUOUS
 62
     3
  5
33
 10
707803.08
 20
5095750.83
 30
0.0
  0
VERTEX
  8
4
  6
CONTINUOUS
 62
     3
  5
34
 10
708803.08
 20
5095750.83
 30
0.0
  0
VERTEX
  8
4
  6
CONTINUOUS
 62
     3
  5
35
 10
708803.08
 20
5094750.83
 30
0.0
  0
SEQEND
  8
4
  6
CONTINUOUS
 62
     3
  5
36
  0
TEXT
  8
4
  6
CONTINUOUS
 62
     3
  5
37
 10
708144.74
 20
5095150.83
 30
0.0
 40
200.0
  1
02
  7
ROMANS
 72
     4
 11
708303.08
 21
5095250.83
 31
0.0
210
0.0
220
0.0
230
1.0
  0
POLYLINE
  8
4
  6
CONTINUOUS
 62
     3
  5
38
 66
     1
 10
0.0
 20
0.0
 30
0.0
 70
     1
210
0.0
220
0.0
230
1.0
  0
VERTEX
  8
4
  6
CONTINUOUS
 62
     3
  5
39
 10
708803.08
 20
5094750.83
 30
0.0
  0
VERTEX
  8
4
  6
CONTINUOUS
 62
     3
  5
3A
 10
708803.08
 20
5095750.83
 30
0.0
  0
VERTEX
  8
4
  6
CONTINUOUS
 62
     3
  5
3B
 10
709803.08
 20
5095750.83
 30
0.0
  0
VERTEX
  8
4
  6
CONTINUOUS
 62
     3
  5
3C
 10
709803.08
 20
5094750.83
 30
0.0
  0
SEQEND
  8
4
  6
CONTINUOUS
 62
     3
  5
3D
  0
TEXT
  8
4
  6
CONTINUOUS
 62
     3
  5
3E
 10
709144.74
 20
5095150.83
 30
0.0
 40
200.0
  1
03
  7
ROMANS
 72
     4
 11
709303.08
 21
5095250.83
 31
0.0
210
0.0
220
0.0
230
1.0
  0
POLYLINE
  8
4
  6
CONTINUOUS
 62
     3
  5
3F
 66
     1
 10
0.0
 20
0.0
 30
0.0
 70
     1
210
0.0
220
0.0
230
1.0
  0
VERTEX
  8
4
  6
CONTINUOUS
 62
     3
  5
40
 10
709803.08
 20
5094750.83
 30
0.0
  0
VERTEX
  8
4
  6
CONTINUOUS
 62
     3
  5
41
 10
709803.08
 20
5095750.83
 30
0.0
  0
VERTEX
  8
4
  6
CONTINUOUS
 62
     3
  5
42
 10
710803.08
 20
5095750.83
 30
0.0
  0
VERTEX
  8
4
  6
CONTINUOUS
 62
     3
  5
43
 10
710803.08
 20
5094750.83
 30
0.0
  0
SEQEND
  8
4
  6
CONTINUOUS
 62
     3
  5
44
  0
TEXT
  8
4
  6
CONTINUOUS
 62
     3
  5
45
 10
710144.74
 20
5095150.83
 30
0.0
 40
200.0
  1
04
  7
ROMANS
 72
     4
 11
710303.08
 21
5095250.83
 31
0.0
210
0.0
220
0.0
230
1.0
  0
POLYLINE
  8
4
  6
CONTINUOUS
 62
     3
  5
46
 66
     1
 10
0.0
 20
0.0
 30
0.0
 70
     1
210
0.0
220
0.0
230
1.0
  0
VERTEX
  8
4
  6
CONTINUOUS
 62
     3
  5
47
 10
710803.08
 20
5094750.83
 30
0.0
  0
VERTEX
  8
4
  6
CONTINUOUS
 62
     3
  5
48
 10
710803.08
 20
5095750.83
 30
0.0
  0
VERTEX
  8
4
  6
CONTINUOUS
 62
     3
  5
49
 10
711803.08
 20
5095750.83
 30
0.0
  0
VERTEX
  8
4
  6
CONTINUOUS
 62
     3
  5
4A
 10
711803.08
 20
5094750.83
 30
0.0
  0
SEQEND
  8
4
  6
CONTINUOUS
 62
     3
  5
4B
  0
TEXT
  8
4
  6
CONTINUOUS
 62
     3
  5
4C
 10
711144.49
 20
5095150.83
 30
0.0
 40
200.0
  1
05
  7
ROMANS
 72
     4
 11
711303.08
 21
5095250.83
 31
0.0
210
0.0
220
0.0
230
1.0
  0
POLYLINE
  8
4
  6
CONTINUOUS
 62
     3
  5
4D
 66
     1
 10
0.0
 20
0.0
 30
0.0
 70
     1
210
0.0
220
0.0
230
1.0
  0
VERTEX
  8
4
  6
CONTINUOUS
 62
     3
  5
4E
 10
711803.08
 20
5094750.83
 30
0.0
  0
VERTEX
  8
4
  6
CONTINUOUS
 62
     3
  5
4F
 10
711803.08
 20
5095750.83
 30
0.0
  0
VERTEX
  8
4
  6
CONTINUOUS
 62
     3
  5
50
 10
712803.08
 20
5095750.83
 30
0.0
  0
VERTEX
  8
4
  6
CONTINUOUS
 62
     3
  5
51
 10
712803.08
 20
5094750.83
 30
0.0
  0
SEQEND
  8
4
  6
CONTINUOUS
 62
     3
  5
52
  0
TEXT
  8
4
  6
CONTINUOUS
 62
     3
  5
53
 10
712140.06
 20
5095150.83
 30
0.0
 40
200.0
  1
06
  7
ROMANS
 72
     4
 11
712303.08
 21
5095250.83
 31
0.0
210
0.0
220
0.0
230
1.0
  0
POLYLINE
  8
4
  6
CONTINUOUS
 62
     3
  5
54
 66
     1
 10
0.0
 20
0.0
 30
0.0
 70
     1
210
0.0
220
0.0
230
1.0
  0
VERTEX
  8
4
  6
CONTINUOUS
 62
     3
  5
55
 10
712803.08
 20
5094750.83
 30
0.0
  0
VERTEX
  8
4
  6
CONTINUOUS
 62
     3
  5
56
 10
712803.08
 20
5095750.83
 30
0.0
  0
VERTEX
  8
4
  6
CONTINUOUS
 62
     3
  5
57
 10
713803.08
 20
5095750.83
 30
0.0
  0
VERTEX
  8
4
  6
CONTINUOUS
 62
     3
  5
58
 10
713803.08
 20
5094750.83
 30
0.0
  0
SEQEND
  8
4
  6
CONTINUOUS
 62
     3
  5
59
  0
TEXT
  8
4
  6
CONTINUOUS
 62
     3
  5
5A
 10
713144.74
 20
5095150.83
 30
0.0
 40
200.0
  1
07
  7
ROMANS
 72
     4
 11
713303.08
 21
5095250.83
 31
0.0
210
0.0
220
0.0
230
1.0
  0
POLYLINE
  8
4
  6
CONTINUOUS
 62
     3
  5
5B
 66
     1
 10
0.0
 20
0.0
 30
0.0
 70
     1
210
0.0
220
0.0
230
1.0
  0
VERTEX
  8
4
  6
CONTINUOUS
 62
     3
  5
5C
 10
713803.08
 20
5094750.83
 30
0.0
  0
VERTEX
  8
4
  6
CONTINUOUS
 62
     3
  5
5D
 10
713803.08
 20
5095750.83
 30
0.0
  0
VERTEX
  8
4
  6
CONTINUOUS
 62
     3
  5
5E
 10
714803.08
 20
5095750.83
 30
0.0
  0
VERTEX
  8
4
  6
CONTINUOUS
 62
     3
  5
5F
 10
714803.08
 20
5094750.83
 30
0.0
  0
SEQEND
  8
4
  6
CONTINUOUS
 62
     3
  5
60
  0
TEXT
  8
4
  6
CONTINUOUS
 62
     3
  5
61
 10
714144.74
 20
5095150.83
 30
0.0
 40
200.0
  1
08
  7
ROMANS
 72
     4
 11
714303.08
 21
5095250.83
 31
0.0
210
0.0
220
0.0
230
1.0
  0
POLYLINE
  8
4
  6
CONTINUOUS
 62
     3
  5
62
 66
     1
 10
0.0
 20
0.0
 30
0.0
 70
     1
210
0.0
220
0.0
230
1.0
  0
VERTEX
  8
4
  6
CONTINUOUS
 62
     3
  5
63
 10
714803.08
 20
5094750.83
 30
0.0
  0
VERTEX
  8
4
  6
CONTINUOUS
 62
     3
  5
64
 10
714803.08
 20
5095750.83
 30
0.0
  0
VERTEX
  8
4
  6
CONTINUOUS
 62
     3
  5
65
 10
715803.08
 20
5095750.83
 30
0.0
  0
VERTEX
  8
4
  6
CONTINUOUS
 62
     3
  5
66
 10
715803.08
 20
5094750.83
 30
0.0
  0
SEQEND
  8
4
  6
CONTINUOUS
 62
     3
  5
67
  0
TEXT
  8
4
  6
CONTINUOUS
 62
     3
  5
68
 10
715144.74
 20
5095150.83
 30
0.0
 40
200.0
  1
09
  7
ROMANS
 72
     4
 11
715303.08
 21
5095250.83
 31
0.0
210
0.0
220
0.0
230
1.0
  0
POLYLINE
  8
4
  6
CONTINUOUS
 62
     3
  5
69
 66
     1
 10
0.0
 20
0.0
 30
0.0
 70
     1
210
0.0
220
0.0
230
1.0
  0
VERTEX
  8
4
  6
CONTINUOUS
 62
     3
  5
6A
 10
706803.08
 20
5093750.83
 30
0.0
  0
VERTEX
  8
4
  6
CONTINUOUS
 62
     3
  5
6B
 10
706803.08
 20
5094750.83
 30
0.0
  0
VERTEX
  8
4
  6
CONTINUOUS
 62
     3
  5
6C
 10
707803.08
 20
5094750.83
 30
0.0
  0
VERTEX
  8
4
  6
CONTINUOUS
 62
     3
  5
6D
 10
707803.08
 20
5093750.83
 30
0.0
  0
SEQEND
  8
4
  6
CONTINUOUS
 62
     3
  5
6E
  0
TEXT
  8
4
  6
CONTINUOUS
 62
     3
  5
6F
 10
707136.8
 20
5094150.83
 30
0.0
 40
200.0
  1
10
  7
ROMANS
 72
     4
 11
707303.08
 21
5094250.83
 31
0.0
210
0.0
220
0.0
230
1.0
  0
POLYLINE
  8
4
  6
CONTINUOUS
 62
     3
  5
70
 66
     1
 10
0.0
 20
0.0
 30
0.0
 70
     1
210
0.0
220
0.0
230
1.0
  0
VERTEX
  8
4
  6
CONTINUOUS
 62
     3
  5
71
 10
707803.08
 20
5093750.83
 30
0.0
  0
VERTEX
  8
4
  6
CONTINUOUS
 62
     3
  5
72
 10
707803.08
 20
5094750.83
 30
0.0
  0
VERTEX
  8
4
  6
CONTINUOUS
 62
     3
  5
73
 10
708803.08
 20
5094750.83
 30
0.0
  0
VERTEX
  8
4
  6
CONTINUOUS
 62
     3
  5
74
 10
708803.08
 20
5093750.83
 30
0.0
  0
SEQEND
  8
4
  6
CONTINUOUS
 62
     3
  5
75
  0
TEXT
  8
4
  6
CONTINUOUS
 62
     3
  5
76
 10
708169.74
 20
5094150.83
 30
0.0
 40
200.0
  1
11
  7
ROMANS
 72
     4
 11
708303.08
 21
5094250.83
 31
0.0
210
0.0
220
0.0
230
1.0
  0
POLYLINE
  8
4
  6
CONTINUOUS
 62
     3
  5
77
 66
     1
 10
0.0
 20
0.0
 30
0.0
 70
     1
210
0.0
220
0.0
230
1.0
  0
VERTEX
  8
4
  6
CONTINUOUS
 62
     3
  5
78
 10
708803.08
 20
5093750.83
 30
0.0
  0
VERTEX
  8
4
  6
CONTINUOUS
 62
     3
  5
79
 10
708803.08
 20
5094750.83
 30
0.0
  0
VERTEX
  8
4
  6
CONTINUOUS
 62
     3
  5
7A
 10
709803.08
 20
5094750.83
 30
0.0
  0
VERTEX
  8
4
  6
CONTINUOUS
 62
     3
  5
7B
 10
709803.08
 20
5093750.83
 30
0.0
  0
SEQEND
  8
4
  6
CONTINUOUS
 62
     3
  5
7C
  0
TEXT
  8
4
  6
CONTINUOUS
 62
     3
  5
7D
 10
709144.74
 20
5094150.83
 30
0.0
 40
200.0
  1
12
  7
ROMANS
 72
     4
 11
709303.08
 21
5094250.83
 31
0.0
210
0.0
220
0.0
230
1.0
  0
POLYLINE
  8
4
  6
CONTINUOUS
 62
     3
  5
7E
 66
     1
 10
0.0
 20
0.0
 30
0.0
 70
     1
210
0.0
220
0.0
230
1.0
  0
VERTEX
  8
4
  6
CONTINUOUS
 62
     3
  5
7F
 10
709803.08
 20
5093750.83
 30
0.0
  0
VERTEX
  8
4
  6
CONTINUOUS
 62
     3
  5
80
 10
709803.08
 20
5094750.83
 30
0.0
  0
VERTEX
  8
4
  6
CONTINUOUS
 62
     3
  5
81
 10
710803.08
 20
5094750.83
 30
0.0
  0
VERTEX
  8
4
  6
CONTINUOUS
 62
     3
  5
82
 10
710803.08
 20
5093750.83
 30
0.0
  0
SEQEND
  8
4
  6
CONTINUOUS
 62
     3
  5
83
  0
TEXT
  8
4
  6
CONTINUOUS
 62
     3
  5
84
 10
710144.74
 20
5094150.83
 30
0.0
 40
200.0
  1
13
  7
ROMANS
 72
     4
 11
710303.08
 21
5094250.83
 31
0.0
210
0.0
220
0.0
230
1.0
  0
POLYLINE
  8
4
  6
CONTINUOUS
 62
     3
  5
85
 66
     1
 10
0.0
 20
0.0
 30
0.0
 70
     1
210
0.0
220
0.0
230
1.0
  0
VERTEX
  8
4
  6
CONTINUOUS
 62
     3
  5
86
 10
710803.08
 20
5093750.83
 30
0.0
  0
VERTEX
  8
4
  6
CONTINUOUS
 62
     3
  5
87
 10
710803.08
 20
5094750.83
 30
0.0
  0
VERTEX
  8
4
  6
CONTINUOUS
 62
     3
  5
88
 10
711803.08
 20
5094750.83
 30
0.0
  0
VERTEX
  8
4
  6
CONTINUOUS
 62
     3
  5
89
 10
711803.08
 20
5093750.83
 30
0.0
  0
SEQEND
  8
4
  6
CONTINUOUS
 62
     3
  5
8A
  0
TEXT
  8
4
  6
CONTINUOUS
 62
     3
  5
8B
 10
711144.74
 20
5094150.83
 30
0.0
 40
200.0
  1
14
  7
ROMANS
 72
     4
 11
711303.08
 21
5094250.83
 31
0.0
210
0.0
220
0.0
230
1.0
  0
POLYLINE
  8
4
  6
CONTINUOUS
 62
     3
  5
8C
 66
     1
 10
0.0
 20
0.0
 30
0.0
 70
     1
210
0.0
220
0.0
230
1.0
  0
VERTEX
  8
4
  6
CONTINUOUS
 62
     3
  5
8D
 10
711803.08
 20
5093750.83
 30
0.0
  0
VERTEX
  8
4
  6
CONTINUOUS
 62
     3
  5
8E
 10
711803.08
 20
5094750.83
 30
0.0
  0
VERTEX
  8
4
  6
CONTINUOUS
 62
     3
  5
8F
 10
712803.08
 20
5094750.83
 30
0.0
  0
VERTEX
  8
4
  6
CONTINUOUS
 62
     3
  5
90
 10
712803.08
 20
5093750.83
 30
0.0
  0
SEQEND
  8
4
  6
CONTINUOUS
 62
     3
  5
91
  0
TEXT
  8
4
  6
CONTINUOUS
 62
     3
  5
92
 10
712144.49
 20
5094150.83
 30
0.0
 40
200.0
  1
15
  7
ROMANS
 72
     4
 11
712303.08
 21
5094250.83
 31
0.0
210
0.0
220
0.0
230
1.0
  0
POLYLINE
  8
4
  6
CONTINUOUS
 62
     3
  5
93
 66
     1
 10
0.0
 20
0.0
 30
0.0
 70
     1
210
0.0
220
0.0
230
1.0
  0
VERTEX
  8
4
  6
CONTINUOUS
 62
     3
  5
94
 10
712803.08
 20
5093750.83
 30
0.0
  0
VERTEX
  8
4
  6
CONTINUOUS
 62
     3
  5
95
 10
712803.08
 20
5094750.83
 30
0.0
  0
VERTEX
  8
4
  6
CONTINUOUS
 62
     3
  5
96
 10
713803.08
 20
5094750.83
 30
0.0
  0
VERTEX
  8
4
  6
CONTINUOUS
 62
     3
  5
97
 10
713803.08
 20
5093750.83
 30
0.0
  0
SEQEND
  8
4
  6
CONTINUOUS
 62
     3
  5
98
  0
TEXT
  8
4
  6
CONTINUOUS
 62
     3
  5
99
 10
713140.06
 20
5094150.83
 30
0.0
 40
200.0
  1
16
  7
ROMANS
 72
     4
 11
713303.08
 21
5094250.83
 31
0.0
210
0.0
220
0.0
230
1.0
  0
POLYLINE
  8
4
  6
CONTINUOUS
 62
     3
  5
9A
 66
     1
 10
0.0
 20
0.0
 30
0.0
 70
     1
210
0.0
220
0.0
230
1.0
  0
VERTEX
  8
4
  6
CONTINUOUS
 62
     3
  5
9B
 10
713803.08
 20
5093750.83
 30
0.0
  0
VERTEX
  8
4
  6
CONTINUOUS
 62
     3
  5
9C
 10
713803.08
 20
5094750.83
 30
0.0
  0
VERTEX
  8
4
  6
CONTINUOUS
 62
     3
  5
9D
 10
714803.08
 20
5094750.83
 30
0.0
  0
VERTEX
  8
4
  6
CONTINUOUS
 62
     3
  5
9E
 10
714803.08
 20
5093750.83
 30
0.0
  0
SEQEND
  8
4
  6
CONTINUOUS
 62
     3
  5
9F
  0
TEXT
  8
4
  6
CONTINUOUS
 62
     3
  5
A0
 10
714144.74
 20
5094150.83
 30
0.0
 40
200.0
  1
17
  7
ROMANS
 72
     4
 11
714303.08
 21
5094250.83
 31
0.0
210
0.0
220
0.0
230
1.0
  0
POLYLINE
  8
4
  6
CONTINUOUS
 62
     3
  5
A1
 66
     1
 10
0.0
 20
0.0
 30
0.0
 70
     1
210
0.0
220
0.0
230
1.0
  0
VERTEX
  8
4
  6
CONTINUOUS
 62
     3
  5
A2
 10
714803.08
 20
5093750.83
 30
0.0
  0
VERTEX
  8
4
  6
CONTINUOUS
 62
     3
  5
A3
 10
714803.08
 20
5094750.83
 30
0.0
  0
VERTEX
  8
4
  6
CONTINUOUS
 62
     3
  5
A4
 10
715803.08
 20
5094750.83
 30
0.0
  0
VERTEX
  8
4
  6
CONTINUOUS
 62
     3
  5
A5
 10
715803.08
 20
5093750.83
 30
0.0
  0
SEQEND
  8
4
  6
CONTINUOUS
 62
     3
  5
A6
  0
TEXT
  8
4
  6
CONTINUOUS
 62
     3
  5
A7
 10
715144.74
 20
5094150.83
 30
0.0
 40
200.0
  1
18
  7
ROMANS
 72
     4
 11
715303.08
 21
5094250.83
 31
0.0
210
0.0
220
0.0
230
1.0
  0
POLYLINE
  8
4
  6
CONTINUOUS
 62
     3
  5
A8
 66
     1
 10
0.0
 20
0.0
 30
0.0
 70
     1
210
0.0
220
0.0
230
1.0
  0
VERTEX
  8
4
  6
CONTINUOUS
 62
     3
  5
A9
 10
706803.08
 20
5092750.83
 30
0.0
  0
VERTEX
  8
4
  6
CONTINUOUS
 62
     3
  5
AA
 10
706803.08
 20
5093750.83
 30
0.0
  0
VERTEX
  8
4
  6
CONTINUOUS
 62
     3
  5
AB
 10
707803.08
 20
5093750.83
 30
0.0
  0
VERTEX
  8
4
  6
CONTINUOUS
 62
     3
  5
AC
 10
707803.08
 20
5092750.83
 30
0.0
  0
SEQEND
  8
4
  6
CONTINUOUS
 62
     3
  5
AD
  0
TEXT
  8
4
  6
CONTINUOUS
 62
     3
  5
AE
 10
707144.74
 20
5093150.83
 30
0.0
 40
200.0
  1
19
  7
ROMANS
 72
     4
 11
707303.08
 21
5093250.83
 31
0.0
210
0.0
220
0.0
230
1.0
  0
POLYLINE
  8
4
  6
CONTINUOUS
 62
     3
  5
AF
 66
     1
 10
0.0
 20
0.0
 30
0.0
 70
     1
210
0.0
220
0.0
230
1.0
  0
VERTEX
  8
4
  6
CONTINUOUS
 62
     3
  5
B0
 10
707803.08
 20
5092750.83
 30
0.0
  0
VERTEX
  8
4
  6
CONTINUOUS
 62
     3
  5
B1
 10
707803.08
 20
5093750.83
 30
0.0
  0
VERTEX
  8
4
  6
CONTINUOUS
 62
     3
  5
B2
 10
708803.08
 20
5093750.83
 30
0.0
  0
VERTEX
  8
4
  6
CONTINUOUS
 62
     3
  5
B3
 10
708803.08
 20
5092750.83
 30
0.0
  0
SEQEND
  8
4
  6
CONTINUOUS
 62
     3
  5
B4
  0
TEXT
  8
4
  6
CONTINUOUS
 62
     3
  5
B5
 10
708136.8
 20
5093150.83
 30
0.0
 40
200.0
  1
20
  7
ROMANS
 72
     4
 11
708303.08
 21
5093250.83
 31
0.0
210
0.0
220
0.0
230
1.0
  0
POLYLINE
  8
4
  6
CONTINUOUS
 62
     3
  5
B6
 66
     1
 10
0.0
 20
0.0
 30
0.0
 70
     1
210
0.0
220
0.0
230
1.0
  0
VERTEX
  8
4
  6
CONTINUOUS
 62
     3
  5
B7
 10
708803.08
 20
5092750.83
 30
0.0
  0
VERTEX
  8
4
  6
CONTINUOUS
 62
     3
  5
B8
 10
708803.08
 20
5093750.83
 30
0.0
  0
VERTEX
  8
4
  6
CONTINUOUS
 62
     3
  5
B9
 10
709803.08
 20
5093750.83
 30
0.0
  0
VERTEX
  8
4
  6
CONTINUOUS
 62
     3
  5
BA
 10
709803.08
 20
5092750.83
 30
0.0
  0
SEQEND
  8
4
  6
CONTINUOUS
 62
     3
  5
BB
  0
TEXT
  8
4
  6
CONTINUOUS
 62
     3
  5
BC
 10
709169.74
 20
5093150.83
 30
0.0
 40
200.0
  1
21
  7
ROMANS
 72
     4
 11
709303.08
 21
5093250.83
 31
0.0
210
0.0
220
0.0
230
1.0
  0
POLYLINE
  8
4
  6
CONTINUOUS
 62
     3
  5
BD
 66
     1
 10
0.0
 20
0.0
 30
0.0
 70
     1
210
0.0
220
0.0
230
1.0
  0
VERTEX
  8
4
  6
CONTINUOUS
 62
     3
  5
BE
 10
709803.08
 20
5092750.83
 30
0.0
  0
VERTEX
  8
4
  6
CONTINUOUS
 62
     3
  5
BF
 10
709803.08
 20
5093750.83
 30
0.0
  0
VERTEX
  8
4
  6
CONTINUOUS
 62
     3
  5
C0
 10
710803.08
 20
5093750.83
 30
0.0
  0
VERTEX
  8
4
  6
CONTINUOUS
 62
     3
  5
C1
 10
710803.08
 20
5092750.83
 30
0.0
  0
SEQEND
  8
4
  6
CONTINUOUS
 62
     3
  5
C2
  0
TEXT
  8
4
  6
CONTINUOUS
 62
     3
  5
C3
 10
710144.74
 20
5093150.83
 30
0.0
 40
200.0
  1
22
  7
ROMANS
 72
     4
 11
710303.08
 21
5093250.83
 31
0.0
210
0.0
220
0.0
230
1.0
  0
POLYLINE
  8
4
  6
CONTINUOUS
 62
     3
  5
C4
 66
     1
 10
0.0
 20
0.0
 30
0.0
 70
     1
210
0.0
220
0.0
230
1.0
  0
VERTEX
  8
4
  6
CONTINUOUS
 62
     3
  5
C5
 10
710803.08
 20
5092750.83
 30
0.0
  0
VERTEX
  8
4
  6
CONTINUOUS
 62
     3
  5
C6
 10
710803.08
 20
5093750.83
 30
0.0
  0
VERTEX
  8
4
  6
CONTINUOUS
 62
     3
  5
C7
 10
711803.08
 20
5093750.83
 30
0.0
  0
VERTEX
  8
4
  6
CONTINUOUS
 62
     3
  5
C8
 10
711803.08
 20
5092750.83
 30
0.0
  0
SEQEND
  8
4
  6
CONTINUOUS
 62
     3
  5
C9
  0
TEXT
  8
4
  6
CONTINUOUS
 62
     3
  5
CA
 10
711144.74
 20
5093150.83
 30
0.0
 40
200.0
  1
23
  7
ROMANS
 72
     4
 11
711303.08
 21
5093250.83
 31
0.0
210
0.0
220
0.0
230
1.0
  0
POLYLINE
  8
4
  6
CONTINUOUS
 62
     3
  5
CB
 66
     1
 10
0.0
 20
0.0
 30
0.0
 70
     1
210
0.0
220
0.0
230
1.0
  0
VERTEX
  8
4
  6
CONTINUOUS
 62
     3
  5
CC
 10
711803.08
 20
5092750.83
 30
0.0
  0
VERTEX
  8
4
  6
CONTINUOUS
 62
     3
  5
CD
 10
711803.08
 20
5093750.83
 30
0.0
  0
VERTEX
  8
4
  6
CONTINUOUS
 62
     3
  5
CE
 10
712803.08
 20
5093750.83
 30
0.0
  0
VERTEX
  8
4
  6
CONTINUOUS
 62
     3
  5
CF
 10
712803.08
 20
5092750.83
 30
0.0
  0
SEQEND
  8
4
  6
CONTINUOUS
 62
     3
  5
D0
  0
TEXT
  8
4
  6
CONTINUOUS
 62
     3
  5
D1
 10
712144.74
 20
5093150.83
 30
0.0
 40
200.0
  1
24
  7
ROMANS
 72
     4
 11
712303.08
 21
5093250.83
 31
0.0
210
0.0
220
0.0
230
1.0
  0
POLYLINE
  8
4
  6
CONTINUOUS
 62
     3
  5
D2
 66
     1
 10
0.0
 20
0.0
 30
0.0
 70
     1
210
0.0
220
0.0
230
1.0
  0
VERTEX
  8
4
  6
CONTINUOUS
 62
     3
  5
D3
 10
712803.08
 20
5092750.83
 30
0.0
  0
VERTEX
  8
4
  6
CONTINUOUS
 62
     3
  5
D4
 10
712803.08
 20
5093750.83
 30
0.0
  0
VERTEX
  8
4
  6
CONTINUOUS
 62
     3
  5
D5
 10
713803.08
 20
5093750.83
 30
0.0
  0
VERTEX
  8
4
  6
CONTINUOUS
 62
     3
  5
D6
 10
713803.08
 20
5092750.83
 30
0.0
  0
SEQEND
  8
4
  6
CONTINUOUS
 62
     3
  5
D7
  0
TEXT
  8
4
  6
CONTINUOUS
 62
     3
  5
D8
 10
713144.49
 20
5093150.83
 30
0.0
 40
200.0
  1
25
  7
ROMANS
 72
     4
 11
713303.08
 21
5093250.83
 31
0.0
210
0.0
220
0.0
230
1.0
  0
POLYLINE
  8
4
  6
CONTINUOUS
 62
     3
  5
D9
 66
     1
 10
0.0
 20
0.0
 30
0.0
 70
     1
210
0.0
220
0.0
230
1.0
  0
VERTEX
  8
4
  6
CONTINUOUS
 62
     3
  5
DA
 10
713803.08
 20
5092750.83
 30
0.0
  0
VERTEX
  8
4
  6
CONTINUOUS
 62
     3
  5
DB
 10
713803.08
 20
5093750.83
 30
0.0
  0
VERTEX
  8
4
  6
CONTINUOUS
 62
     3
  5
DC
 10
714803.08
 20
5093750.83
 30
0.0
  0
VERTEX
  8
4
  6
CONTINUOUS
 62
     3
  5
DD
 10
714803.08
 20
5092750.83
 30
0.0
  0
SEQEND
  8
4
  6
CONTINUOUS
 62
     3
  5
DE
  0
TEXT
  8
4
  6
CONTINUOUS
 62
     3
  5
DF
 10
714140.06
 20
5093150.83
 30
0.0
 40
200.0
  1
26
  7
ROMANS
 72
     4
 11
714303.08
 21
5093250.83
 31
0.0
210
0.0
220
0.0
230
1.0
  0
POLYLINE
  8
4
  6
CONTINUOUS
 62
     3
  5
E0
 66
     1
 10
0.0
 20
0.0
 30
0.0
 70
     1
210
0.0
220
0.0
230
1.0
  0
VERTEX
  8
4
  6
CONTINUOUS
 62
     3
  5
E1
 10
714803.08
 20
5092750.83
 30
0.0
  0
VERTEX
  8
4
  6
CONTINUOUS
 62
     3
  5
E2
 10
714803.08
 20
5093750.83
 30
0.0
  0
VERTEX
  8
4
  6
CONTINUOUS
 62
     3
  5
E3
 10
715803.08
 20
5093750.83
 30
0.0
  0
VERTEX
  8
4
  6
CONTINUOUS
 62
     3
  5
E4
 10
715803.08
 20
5092750.83
 30
0.0
  0
SEQEND
  8
4
  6
CONTINUOUS
 62
     3
  5
E5
  0
TEXT
  8
4
  6
CONTINUOUS
 62
     3
  5
E6
 10
715144.74
 20
5093150.83
 30
0.0
 40
200.0
  1
27
  7
ROMANS
 72
     4
 11
715303.08
 21
5093250.83
 31
0.0
210
0.0
220
0.0
230
1.0
  0
POLYLINE
  8
4
  6
CONTINUOUS
 62
     3
  5
E7
 66
     1
 10
0.0
 20
0.0
 30
0.0
 70
     1
210
0.0
220
0.0
230
1.0
  0
VERTEX
  8
4
  6
CONTINUOUS
 62
     3
  5
E8
 10
707803.08
 20
5091750.83
 30
0.0
  0
VERTEX
  8
4
  6
CONTINUOUS
 62
     3
  5
E9
 10
707803.08
 20
5092750.83
 30
0.0
  0
VERTEX
  8
4
  6
CONTINUOUS
 62
     3
  5
EA
 10
708803.08
 20
5092750.83
 30
0.0
  0
VERTEX
  8
4
  6
CONTINUOUS
 62
     3
  5
EB
 10
708803.08
 20
5091750.83
 30
0.0
  0
SEQEND
  8
4
  6
CONTINUOUS
 62
     3
  5
EC
  0
TEXT
  8
4
  6
CONTINUOUS
 62
     3
  5
ED
 10
708144.74
 20
5092150.83
 30
0.0
 40
200.0
  1
28
  7
ROMANS
 72
     4
 11
708303.08
 21
5092250.83
 31
0.0
210
0.0
220
0.0
230
1.0
  0
POLYLINE
  8
4
  6
CONTINUOUS
 62
     3
  5
EE
 66
     1
 10
0.0
 20
0.0
 30
0.0
 70
     1
210
0.0
220
0.0
230
1.0
  0
VERTEX
  8
4
  6
CONTINUOUS
 62
     3
  5
EF
 10
708803.08
 20
5091750.83
 30
0.0
  0
VERTEX
  8
4
  6
CONTINUOUS
 62
     3
  5
F0
 10
708803.08
 20
5092750.83
 30
0.0
  0
VERTEX
  8
4
  6
CONTINUOUS
 62
     3
  5
F1
 10
709803.08
 20
5092750.83
 30
0.0
  0
VERTEX
  8
4
  6
CONTINUOUS
 62
     3
  5
F2
 10
709803.08
 20
5091750.83
 30
0.0
  0
SEQEND
  8
4
  6
CONTINUOUS
 62
     3
  5
F3
  0
TEXT
  8
4
  6
CONTINUOUS
 62
     3
  5
F4
 10
709144.74
 20
5092150.83
 30
0.0
 40
200.0
  1
29
  7
ROMANS
 72
     4
 11
709303.08
 21
5092250.83
 31
0.0
210
0.0
220
0.0
230
1.0
  0
POLYLINE
  8
4
  6
CONTINUOUS
 62
     3
  5
F5
 66
     1
 10
0.0
 20
0.0
 30
0.0
 70
     1
210
0.0
220
0.0
230
1.0
  0
VERTEX
  8
4
  6
CONTINUOUS
 62
     3
  5
F6
 10
709803.08
 20
5091750.83
 30
0.0
  0
VERTEX
  8
4
  6
CONTINUOUS
 62
     3
  5
F7
 10
709803.08
 20
5092750.83
 30
0.0
  0
VERTEX
  8
4
  6
CONTINUOUS
 62
     3
  5
F8
 10
710803.08
 20
5092750.83
 30
0.0
  0
VERTEX
  8
4
  6
CONTINUOUS
 62
     3
  5
F9
 10
710803.08
 20
5091750.83
 30
0.0
  0
SEQEND
  8
4
  6
CONTINUOUS
 62
     3
  5
FA
  0
TEXT
  8
4
  6
CONTINUOUS
 62
     3
  5
FB
 10
710136.8
 20
5092150.83
 30
0.0
 40
200.0
  1
30
  7
ROMANS
 72
     4
 11
710303.08
 21
5092250.83
 31
0.0
210
0.0
220
0.0
230
1.0
  0
POLYLINE
  8
4
  6
CONTINUOUS
 62
     3
  5
FC
 66
     1
 10
0.0
 20
0.0
 30
0.0
 70
     1
210
0.0
220
0.0
230
1.0
  0
VERTEX
  8
4
  6
CONTINUOUS
 62
     3
  5
FD
 10
710803.08
 20
5091750.83
 30
0.0
  0
VERTEX
  8
4
  6
CONTINUOUS
 62
     3
  5
FE
 10
710803.08
 20
5092750.83
 30
0.0
  0
VERTEX
  8
4
  6
CONTINUOUS
 62
     3
  5
FF
 10
711803.08
 20
5092750.83
 30
0.0
  0
VERTEX
  8
4
  6
CONTINUOUS
 62
     3
  5
100
 10
711803.08
 20
5091750.83
 30
0.0
  0
SEQEND
  8
4
  6
CONTINUOUS
 62
     3
  5
101
  0
TEXT
  8
4
  6
CONTINUOUS
 62
     3
  5
102
 10
711169.74
 20
5092150.83
 30
0.0
 40
200.0
  1
31
  7
ROMANS
 72
     4
 11
711303.08
 21
5092250.83
 31
0.0
210
0.0
220
0.0
230
1.0
  0
POLYLINE
  8
4
  6
CONTINUOUS
 62
     3
  5
103
 66
     1
 10
0.0
 20
0.0
 30
0.0
 70
     1
210
0.0
220
0.0
230
1.0
  0
VERTEX
  8
4
  6
CONTINUOUS
 62
     3
  5
104
 10
711803.08
 20
5091750.83
 30
0.0
  0
VERTEX
  8
4
  6
CONTINUOUS
 62
     3
  5
105
 10
711803.08
 20
5092750.83
 30
0.0
  0
VERTEX
  8
4
  6
CONTINUOUS
 62
     3
  5
106
 10
712803.08
 20
5092750.83
 30
0.0
  0
VERTEX
  8
4
  6
CONTINUOUS
 62
     3
  5
107
 10
712803.08
 20
5091750.83
 30
0.0
  0
SEQEND
  8
4
  6
CONTINUOUS
 62
     3
  5
108
  0
TEXT
  8
4
  6
CONTINUOUS
 62
     3
  5
109
 10
712144.74
 20
5092150.83
 30
0.0
 40
200.0
  1
32
  7
ROMANS
 72
     4
 11
712303.08
 21
5092250.83
 31
0.0
210
0.0
220
0.0
230
1.0
  0
POLYLINE
  8
4
  6
CONTINUOUS
 62
     3
  5
10A
 66
     1
 10
0.0
 20
0.0
 30
0.0
 70
     1
210
0.0
220
0.0
230
1.0
  0
VERTEX
  8
4
  6
CONTINUOUS
 62
     3
  5
10B
 10
712803.08
 20
5091750.83
 30
0.0
  0
VERTEX
  8
4
  6
CONTINUOUS
 62
     3
  5
10C
 10
712803.08
 20
5092750.83
 30
0.0
  0
VERTEX
  8
4
  6
CONTINUOUS
 62
     3
  5
10D
 10
713803.08
 20
5092750.83
 30
0.0
  0
VERTEX
  8
4
  6
CONTINUOUS
 62
     3
  5
10E
 10
713803.08
 20
5091750.83
 30
0.0
  0
SEQEND
  8
4
  6
CONTINUOUS
 62
     3
  5
10F
  0
TEXT
  8
4
  6
CONTINUOUS
 62
     3
  5
110
 10
713144.74
 20
5092150.83
 30
0.0
 40
200.0
  1
33
  7
ROMANS
 72
     4
 11
713303.08
 21
5092250.83
 31
0.0
210
0.0
220
0.0
230
1.0
  0
POLYLINE
  8
4
  6
CONTINUOUS
 62
     3
  5
111
 66
     1
 10
0.0
 20
0.0
 30
0.0
 70
     1
210
0.0
220
0.0
230
1.0
  0
VERTEX
  8
4
  6
CONTINUOUS
 62
     3
  5
112
 10
713803.08
 20
5091750.83
 30
0.0
  0
VERTEX
  8
4
  6
CONTINUOUS
 62
     3
  5
113
 10
713803.08
 20
5092750.83
 30
0.0
  0
VERTEX
  8
4
  6
CONTINUOUS
 62
     3
  5
114
 10
714803.08
 20
5092750.83
 30
0.0
  0
VERTEX
  8
4
  6
CONTINUOUS
 62
     3
  5
115
 10
714803.08
 20
5091750.83
 30
0.0
  0
SEQEND
  8
4
  6
CONTINUOUS
 62
     3
  5
116
  0
TEXT
  8
4
  6
CONTINUOUS
 62
     3
  5
117
 10
714144.74
 20
5092150.83
 30
0.0
 40
200.0
  1
34
  7
ROMANS
 72
     4
 11
714303.08
 21
5092250.83
 31
0.0
210
0.0
220
0.0
230
1.0
  0
POLYLINE
  8
4
  6
CONTINUOUS
 62
     3
  5
118
 66
     1
 10
0.0
 20
0.0
 30
0.0
 70
     1
210
0.0
220
0.0
230
1.0
  0
VERTEX
  8
4
  6
CONTINUOUS
 62
     3
  5
119
 10
714803.08
 20
5091750.83
 30
0.0
  0
VERTEX
  8
4
  6
CONTINUOUS
 62
     3
  5
11A
 10
714803.08
 20
5092750.83
 30
0.0
  0
VERTEX
  8
4
  6
CONTINUOUS
 62
     3
  5
11B
 10
715803.08
 20
5092750.83
 30
0.0
  0
VERTEX
  8
4
  6
CONTINUOUS
 62
     3
  5
11C
 10
715803.08
 20
5091750.83
 30
0.0
  0
SEQEND
  8
4
  6
CONTINUOUS
 62
     3
  5
11D
  0
TEXT
  8
4
  6
CONTINUOUS
 62
     3
  5
11E
 10
715144.49
 20
5092150.83
 30
0.0
 40
200.0
  1
35
  7
ROMANS
 72
     4
 11
715303.08
 21
5092250.83
 31
0.0
210
0.0
220
0.0
230
1.0
  0
POLYLINE
  8
4
  6
CONTINUOUS
 62
     3
  5
11F
 66
     1
 10
0.0
 20
0.0
 30
0.0
 70
     1
210
0.0
220
0.0
230
1.0
  0
VERTEX
  8
4
  6
CONTINUOUS
 62
     3
  5
120
 10
707803.08
 20
5090750.83
 30
0.0
  0
VERTEX
  8
4
  6
CONTINUOUS
 62
     3
  5
121
 10
707803.08
 20
5091750.83
 30
0.0
  0
VERTEX
  8
4
  6
CONTINUOUS
 62
     3
  5
122
 10
708803.08
 20
5091750.83
 30
0.0
  0
VERTEX
  8
4
  6
CONTINUOUS
 62
     3
  5
123
 10
708803.08
 20
5090750.83
 30
0.0
  0
SEQEND
  8
4
  6
CONTINUOUS
 62
     3
  5
124
  0
TEXT
  8
4
  6
CONTINUOUS
 62
     3
  5
125
 10
708140.06
 20
5091150.83
 30
0.0
 40
200.0
  1
36
  7
ROMANS
 72
     4
 11
708303.08
 21
5091250.83
 31
0.0
210
0.0
220
0.0
230
1.0
  0
POLYLINE
  8
4
  6
CONTINUOUS
 62
     3
  5
126
 66
     1
 10
0.0
 20
0.0
 30
0.0
 70
     1
210
0.0
220
0.0
230
1.0
  0
VERTEX
  8
4
  6
CONTINUOUS
 62
     3
  5
127
 10
708803.08
 20
5090750.83
 30
0.0
  0
VERTEX
  8
4
  6
CONTINUOUS
 62
     3
  5
128
 10
708803.08
 20
5091750.83
 30
0.0
  0
VERTEX
  8
4
  6
CONTINUOUS
 62
     3
  5
129
 10
709803.08
 20
5091750.83
 30
0.0
  0
VERTEX
  8
4
  6
CONTINUOUS
 62
     3
  5
12A
 10
709803.08
 20
5090750.83
 30
0.0
  0
SEQEND
  8
4
  6
CONTINUOUS
 62
     3
  5
12B
  0
TEXT
  8
4
  6
CONTINUOUS
 62
     3
  5
12C
 10
709144.74
 20
5091150.83
 30
0.0
 40
200.0
  1
37
  7
ROMANS
 72
     4
 11
709303.08
 21
5091250.83
 31
0.0
210
0.0
220
0.0
230
1.0
  0
POLYLINE
  8
4
  6
CONTINUOUS
 62
     3
  5
12D
 66
     1
 10
0.0
 20
0.0
 30
0.0
 70
     1
210
0.0
220
0.0
230
1.0
  0
VERTEX
  8
4
  6
CONTINUOUS
 62
     3
  5
12E
 10
709803.08
 20
5090750.83
 30
0.0
  0
VERTEX
  8
4
  6
CONTINUOUS
 62
     3
  5
12F
 10
709803.08
 20
5091750.83
 30
0.0
  0
VERTEX
  8
4
  6
CONTINUOUS
 62
     3
  5
130
 10
710803.08
 20
5091750.83
 30
0.0
  0
VERTEX
  8
4
  6
CONTINUOUS
 62
     3
  5
131
 10
710803.08
 20
5090750.83
 30
0.0
  0
SEQEND
  8
4
  6
CONTINUOUS
 62
     3
  5
132
  0
TEXT
  8
4
  6
CONTINUOUS
 62
     3
  5
133
 10
710144.74
 20
5091150.83
 30
0.0
 40
200.0
  1
38
  7
ROMANS
 72
     4
 11
710303.08
 21
5091250.83
 31
0.0
210
0.0
220
0.0
230
1.0
  0
POLYLINE
  8
4
  6
CONTINUOUS
 62
     3
  5
134
 66
     1
 10
0.0
 20
0.0
 30
0.0
 70
     1
210
0.0
220
0.0
230
1.0
  0
VERTEX
  8
4
  6
CONTINUOUS
 62
     3
  5
135
 10
710803.08
 20
5090750.83
 30
0.0
  0
VERTEX
  8
4
  6
CONTINUOUS
 62
     3
  5
136
 10
710803.08
 20
5091750.83
 30
0.0
  0
VERTEX
  8
4
  6
CONTINUOUS
 62
     3
  5
137
 10
711803.08
 20
5091750.83
 30
0.0
  0
VERTEX
  8
4
  6
CONTINUOUS
 62
     3
  5
138
 10
711803.08
 20
5090750.83
 30
0.0
  0
SEQEND
  8
4
  6
CONTINUOUS
 62
     3
  5
139
  0
TEXT
  8
4
  6
CONTINUOUS
 62
     3
  5
13A
 10
711144.74
 20
5091150.83
 30
0.0
 40
200.0
  1
39
  7
ROMANS
 72
     4
 11
711303.08
 21
5091250.83
 31
0.0
210
0.0
220
0.0
230
1.0
  0
POLYLINE
  8
4
  6
CONTINUOUS
 62
     3
  5
13B
 66
     1
 10
0.0
 20
0.0
 30
0.0
 70
     1
210
0.0
220
0.0
230
1.0
  0
VERTEX
  8
4
  6
CONTINUOUS
 62
     3
  5
13C
 10
711803.08
 20
5090750.83
 30
0.0
  0
VERTEX
  8
4
  6
CONTINUOUS
 62
     3
  5
13D
 10
711803.08
 20
5091750.83
 30
0.0
  0
VERTEX
  8
4
  6
CONTINUOUS
 62
     3
  5
13E
 10
712803.08
 20
5091750.83
 30
0.0
  0
VERTEX
  8
4
  6
CONTINUOUS
 62
     3
  5
13F
 10
712803.08
 20
5090750.83
 30
0.0
  0
SEQEND
  8
4
  6
CONTINUOUS
 62
     3
  5
140
  0
TEXT
  8
4
  6
CONTINUOUS
 62
     3
  5
141
 10
712136.8
 20
5091150.83
 30
0.0
 40
200.0
  1
40
  7
ROMANS
 72
     4
 11
712303.08
 21
5091250.83
 31
0.0
210
0.0
220
0.0
230
1.0
  0
POLYLINE
  8
4
  6
CONTINUOUS
 62
     3
  5
142
 66
     1
 10
0.0
 20
0.0
 30
0.0
 70
     1
210
0.0
220
0.0
230
1.0
  0
VERTEX
  8
4
  6
CONTINUOUS
 62
     3
  5
143
 10
712803.08
 20
5090750.83
 30
0.0
  0
VERTEX
  8
4
  6
CONTINUOUS
 62
     3
  5
144
 10
712803.08
 20
5091750.83
 30
0.0
  0
VERTEX
  8
4
  6
CONTINUOUS
 62
     3
  5
145
 10
713803.08
 20
5091750.83
 30
0.0
  0
VERTEX
  8
4
  6
CONTINUOUS
 62
     3
  5
146
 10
713803.08
 20
5090750.83
 30
0.0
  0
SEQEND
  8
4
  6
CONTINUOUS
 62
     3
  5
147
  0
TEXT
  8
4
  6
CONTINUOUS
 62
     3
  5
148
 10
713169.74
 20
5091150.83
 30
0.0
 40
200.0
  1
41
  7
ROMANS
 72
     4
 11
713303.08
 21
5091250.83
 31
0.0
210
0.0
220
0.0
230
1.0
  0
POLYLINE
  8
4
  6
CONTINUOUS
 62
     3
  5
149
 66
     1
 10
0.0
 20
0.0
 30
0.0
 70
     1
210
0.0
220
0.0
230
1.0
  0
VERTEX
  8
4
  6
CONTINUOUS
 62
     3
  5
14A
 10
713803.08
 20
5090750.83
 30
0.0
  0
VERTEX
  8
4
  6
CONTINUOUS
 62
     3
  5
14B
 10
713803.08
 20
5091750.83
 30
0.0
  0
VERTEX
  8
4
  6
CONTINUOUS
 62
     3
  5
14C
 10
714803.08
 20
5091750.83
 30
0.0
  0
VERTEX
  8
4
  6
CONTINUOUS
 62
     3
  5
14D
 10
714803.08
 20
5090750.83
 30
0.0
  0
SEQEND
  8
4
  6
CONTINUOUS
 62
     3
  5
14E
  0
TEXT
  8
4
  6
CONTINUOUS
 62
     3
  5
14F
 10
714144.74
 20
5091150.83
 30
0.0
 40
200.0
  1
42
  7
ROMANS
 72
     4
 11
714303.08
 21
5091250.83
 31
0.0
210
0.0
220
0.0
230
1.0
  0
POLYLINE
  8
4
  6
CONTINUOUS
 62
     3
  5
150
 66
     1
 10
0.0
 20
0.0
 30
0.0
 70
     1
210
0.0
220
0.0
230
1.0
  0
VERTEX
  8
4
  6
CONTINUOUS
 62
     3
  5
151
 10
714803.08
 20
5090750.83
 30
0.0
  0
VERTEX
  8
4
  6
CONTINUOUS
 62
     3
  5
152
 10
714803.08
 20
5091750.83
 30
0.0
  0
VERTEX
  8
4
  6
CONTINUOUS
 62
     3
  5
153
 10
715803.08
 20
5091750.83
 30
0.0
  0
VERTEX
  8
4
  6
CONTINUOUS
 62
     3
  5
154
 10
715803.08
 20
5090750.83
 30
0.0
  0
SEQEND
  8
4
  6
CONTINUOUS
 62
     3
  5
155
  0
TEXT
  8
4
  6
CONTINUOUS
 62
     3
  5
156
 10
715144.74
 20
5091150.83
 30
0.0
 40
200.0
  1
43
  7
ROMANS
 72
     4
 11
715303.08
 21
5091250.83
 31
0.0
210
0.0
220
0.0
230
1.0
  0
POLYLINE
  8
4
  6
CONTINUOUS
 62
     3
  5
157
 66
     1
 10
0.0
 20
0.0
 30
0.0
 70
     1
210
0.0
220
0.0
230
1.0
  0
VERTEX
  8
4
  6
CONTINUOUS
 62
     3
  5
158
 10
707803.08
 20
5089750.83
 30
0.0
  0
VERTEX
  8
4
  6
CONTINUOUS
 62
     3
  5
159
 10
707803.08
 20
5090750.83
 30
0.0
  0
VERTEX
  8
4
  6
CONTINUOUS
 62
     3
  5
15A
 10
708803.08
 20
5090750.83
 30
0.0
  0
VERTEX
  8
4
  6
CONTINUOUS
 62
     3
  5
15B
 10
708803.08
 20
5089750.83
 30
0.0
  0
SEQEND
  8
4
  6
CONTINUOUS
 62
     3
  5
15C
  0
TEXT
  8
4
  6
CONTINUOUS
 62
     3
  5
15D
 10
708144.74
 20
5090150.83
 30
0.0
 40
200.0
  1
44
  7
ROMANS
 72
     4
 11
708303.08
 21
5090250.83
 31
0.0
210
0.0
220
0.0
230
1.0
  0
POLYLINE
  8
4
  6
CONTINUOUS
 62
     3
  5
15E
 66
     1
 10
0.0
 20
0.0
 30
0.0
 70
     1
210
0.0
220
0.0
230
1.0
  0
VERTEX
  8
4
  6
CONTINUOUS
 62
     3
  5
15F
 10
708803.08
 20
5089750.83
 30
0.0
  0
VERTEX
  8
4
  6
CONTINUOUS
 62
     3
  5
160
 10
708803.08
 20
5090750.83
 30
0.0
  0
VERTEX
  8
4
  6
CONTINUOUS
 62
     3
  5
161
 10
709803.08
 20
5090750.83
 30
0.0
  0
VERTEX
  8
4
  6
CONTINUOUS
 62
     3
  5
162
 10
709803.08
 20
5089750.83
 30
0.0
  0
SEQEND
  8
4
  6
CONTINUOUS
 62
     3
  5
163
  0
TEXT
  8
4
  6
CONTINUOUS
 62
     3
  5
164
 10
709144.49
 20
5090150.83
 30
0.0
 40
200.0
  1
45
  7
ROMANS
 72
     4
 11
709303.08
 21
5090250.83
 31
0.0
210
0.0
220
0.0
230
1.0
  0
POLYLINE
  8
4
  6
CONTINUOUS
 62
     3
  5
165
 66
     1
 10
0.0
 20
0.0
 30
0.0
 70
     1
210
0.0
220
0.0
230
1.0
  0
VERTEX
  8
4
  6
CONTINUOUS
 62
     3
  5
166
 10
709803.08
 20
5089750.83
 30
0.0
  0
VERTEX
  8
4
  6
CONTINUOUS
 62
     3
  5
167
 10
709803.08
 20
5090750.83
 30
0.0
  0
VERTEX
  8
4
  6
CONTINUOUS
 62
     3
  5
168
 10
710803.08
 20
5090750.83
 30
0.0
  0
VERTEX
  8
4
  6
CONTINUOUS
 62
     3
  5
169
 10
710803.08
 20
5089750.83
 30
0.0
  0
SEQEND
  8
4
  6
CONTINUOUS
 62
     3
  5
16A
  0
TEXT
  8
4
  6
CONTINUOUS
 62
     3
  5
16B
 10
710140.06
 20
5090150.83
 30
0.0
 40
200.0
  1
46
  7
ROMANS
 72
     4
 11
710303.08
 21
5090250.83
 31
0.0
210
0.0
220
0.0
230
1.0
  0
POLYLINE
  8
4
  6
CONTINUOUS
 62
     3
  5
16C
 66
     1
 10
0.0
 20
0.0
 30
0.0
 70
     1
210
0.0
220
0.0
230
1.0
  0
VERTEX
  8
4
  6
CONTINUOUS
 62
     3
  5
16D
 10
710803.08
 20
5089750.83
 30
0.0
  0
VERTEX
  8
4
  6
CONTINUOUS
 62
     3
  5
16E
 10
710803.08
 20
5090750.83
 30
0.0
  0
VERTEX
  8
4
  6
CONTINUOUS
 62
     3
  5
16F
 10
711803.08
 20
5090750.83
 30
0.0
  0
VERTEX
  8
4
  6
CONTINUOUS
 62
     3
  5
170
 10
711803.08
 20
5089750.83
 30
0.0
  0
SEQEND
  8
4
  6
CONTINUOUS
 62
     3
  5
171
  0
TEXT
  8
4
  6
CONTINUOUS
 62
     3
  5
172
 10
711144.74
 20
5090150.83
 30
0.0
 40
200.0
  1
47
  7
ROMANS
 72
     4
 11
711303.08
 21
5090250.83
 31
0.0
210
0.0
220
0.0
230
1.0
  0
POLYLINE
  8
4
  6
CONTINUOUS
 62
     3
  5
173
 66
     1
 10
0.0
 20
0.0
 30
0.0
 70
     1
210
0.0
220
0.0
230
1.0
  0
VERTEX
  8
4
  6
CONTINUOUS
 62
     3
  5
174
 10
711803.08
 20
5089750.83
 30
0.0
  0
VERTEX
  8
4
  6
CONTINUOUS
 62
     3
  5
175
 10
711803.08
 20
5090750.83
 30
0.0
  0
VERTEX
  8
4
  6
CONTINUOUS
 62
     3
  5
176
 10
712803.08
 20
5090750.83
 30
0.0
  0
VERTEX
  8
4
  6
CONTINUOUS
 62
     3
  5
177
 10
712803.08
 20
5089750.83
 30
0.0
  0
SEQEND
  8
4
  6
CONTINUOUS
 62
     3
  5
178
  0
TEXT
  8
4
  6
CONTINUOUS
 62
     3
  5
179
 10
712144.74
 20
5090150.83
 30
0.0
 40
200.0
  1
48
  7
ROMANS
 72
     4
 11
712303.08
 21
5090250.83
 31
0.0
210
0.0
220
0.0
230
1.0
  0
POLYLINE
  8
4
  6
CONTINUOUS
 62
     3
  5
17A
 66
     1
 10
0.0
 20
0.0
 30
0.0
 70
     1
210
0.0
220
0.0
230
1.0
  0
VERTEX
  8
4
  6
CONTINUOUS
 62
     3
  5
17B
 10
712803.08
 20
5089750.83
 30
0.0
  0
VERTEX
  8
4
  6
CONTINUOUS
 62
     3
  5
17C
 10
712803.08
 20
5090750.83
 30
0.0
  0
VERTEX
  8
4
  6
CONTINUOUS
 62
     3
  5
17D
 10
713803.08
 20
5090750.83
 30
0.0
  0
VERTEX
  8
4
  6
CONTINUOUS
 62
     3
  5
17E
 10
713803.08
 20
5089750.83
 30
0.0
  0
SEQEND
  8
4
  6
CONTINUOUS
 62
     3
  5
17F
  0
TEXT
  8
4
  6
CONTINUOUS
 62
     3
  5
180
 10
713144.74
 20
5090150.83
 30
0.0
 40
200.0
  1
49
  7
ROMANS
 72
     4
 11
713303.08
 21
5090250.83
 31
0.0
210
0.0
220
0.0
230
1.0
  0
POLYLINE
  8
4
  6
CONTINUOUS
 62
     3
  5
181
 66
     1
 10
0.0
 20
0.0
 30
0.0
 70
     1
210
0.0
220
0.0
230
1.0
  0
VERTEX
  8
4
  6
CONTINUOUS
 62
     3
  5
182
 10
713803.08
 20
5089750.83
 30
0.0
  0
VERTEX
  8
4
  6
CONTINUOUS
 62
     3
  5
183
 10
713803.08
 20
5090750.83
 30
0.0
  0
VERTEX
  8
4
  6
CONTINUOUS
 62
     3
  5
184
 10
714803.08
 20
5090750.83
 30
0.0
  0
VERTEX
  8
4
  6
CONTINUOUS
 62
     3
  5
185
 10
714803.08
 20
5089750.83
 30
0.0
  0
SEQEND
  8
4
  6
CONTINUOUS
 62
     3
  5
186
  0
TEXT
  8
4
  6
CONTINUOUS
 62
     3
  5
187
 10
714136.8
 20
5090150.83
 30
0.0
 40
200.0
  1
50
  7
ROMANS
 72
     4
 11
714303.08
 21
5090250.83
 31
0.0
210
0.0
220
0.0
230
1.0
  0
POLYLINE
  8
4
  6
CONTINUOUS
 62
     3
  5
188
 66
     1
 10
0.0
 20
0.0
 30
0.0
 70
     1
210
0.0
220
0.0
230
1.0
  0
VERTEX
  8
4
  6
CONTINUOUS
 62
     3
  5
189
 10
714803.08
 20
5089750.83
 30
0.0
  0
VERTEX
  8
4
  6
CONTINUOUS
 62
     3
  5
18A
 10
714803.08
 20
5090750.83
 30
0.0
  0
VERTEX
  8
4
  6
CONTINUOUS
 62
     3
  5
18B
 10
715803.08
 20
5090750.83
 30
0.0
  0
VERTEX
  8
4
  6
CONTINUOUS
 62
     3
  5
18C
 10
715803.08
 20
5089750.83
 30
0.0
  0
SEQEND
  8
4
  6
CONTINUOUS
 62
     3
  5
18D
  0
TEXT
  8
4
  6
CONTINUOUS
 62
     3
  5
18E
 10
715169.74
 20
5090150.83
 30
0.0
 40
200.0
  1
51
  7
ROMANS
 72
     4
 11
715303.08
 21
5090250.83
 31
0.0
210
0.0
220
0.0
230
1.0
  0
POLYLINE
  8
4
  6
CONTINUOUS
 62
     3
  5
18F
 66
     1
 10
0.0
 20
0.0
 30
0.0
 70
     1
210
0.0
220
0.0
230
1.0
  0
VERTEX
  8
4
  6
CONTINUOUS
 62
     3
  5
190
 10
707803.08
 20
5088750.83
 30
0.0
  0
VERTEX
  8
4
  6
CONTINUOUS
 62
     3
  5
191
 10
707803.08
 20
5089750.83
 30
0.0
  0
VERTEX
  8
4
  6
CONTINUOUS
 62
     3
  5
192
 10
708803.08
 20
5089750.83
 30
0.0
  0
VERTEX
  8
4
  6
CONTINUOUS
 62
     3
  5
193
 10
708803.08
 20
5088750.83
 30
0.0
  0
SEQEND
  8
4
  6
CONTINUOUS
 62
     3
  5
194
  0
TEXT
  8
4
  6
CONTINUOUS
 62
     3
  5
195
 10
708144.74
 20
5089150.83
 30
0.0
 40
200.0
  1
52
  7
ROMANS
 72
     4
 11
708303.08
 21
5089250.83
 31
0.0
210
0.0
220
0.0
230
1.0
  0
POLYLINE
  8
4
  6
CONTINUOUS
 62
     3
  5
196
 66
     1
 10
0.0
 20
0.0
 30
0.0
 70
     1
210
0.0
220
0.0
230
1.0
  0
VERTEX
  8
4
  6
CONTINUOUS
 62
     3
  5
197
 10
708803.08
 20
5088750.83
 30
0.0
  0
VERTEX
  8
4
  6
CONTINUOUS
 62
     3
  5
198
 10
708803.08
 20
5089750.83
 30
0.0
  0
VERTEX
  8
4
  6
CONTINUOUS
 62
     3
  5
199
 10
709803.08
 20
5089750.83
 30
0.0
  0
VERTEX
  8
4
  6
CONTINUOUS
 62
     3
  5
19A
 10
709803.08
 20
5088750.83
 30
0.0
  0
SEQEND
  8
4
  6
CONTINUOUS
 62
     3
  5
19B
  0
TEXT
  8
4
  6
CONTINUOUS
 62
     3
  5
19C
 10
709144.74
 20
5089150.83
 30
0.0
 40
200.0
  1
53
  7
ROMANS
 72
     4
 11
709303.08
 21
5089250.83
 31
0.0
210
0.0
220
0.0
230
1.0
  0
POLYLINE
  8
4
  6
CONTINUOUS
 62
     3
  5
19D
 66
     1
 10
0.0
 20
0.0
 30
0.0
 70
     1
210
0.0
220
0.0
230
1.0
  0
VERTEX
  8
4
  6
CONTINUOUS
 62
     3
  5
19E
 10
709803.08
 20
5088750.83
 30
0.0
  0
VERTEX
  8
4
  6
CONTINUOUS
 62
     3
  5
19F
 10
709803.08
 20
5089750.83
 30
0.0
  0
VERTEX
  8
4
  6
CONTINUOUS
 62
     3
  5
1A0
 10
710803.08
 20
5089750.83
 30
0.0
  0
VERTEX
  8
4
  6
CONTINUOUS
 62
     3
  5
1A1
 10
710803.08
 20
5088750.83
 30
0.0
  0
SEQEND
  8
4
  6
CONTINUOUS
 62
     3
  5
1A2
  0
TEXT
  8
4
  6
CONTINUOUS
 62
     3
  5
1A3
 10
710144.74
 20
5089150.83
 30
0.0
 40
200.0
  1
54
  7
ROMANS
 72
     4
 11
710303.08
 21
5089250.83
 31
0.0
210
0.0
220
0.0
230
1.0
  0
POLYLINE
  8
4
  6
CONTINUOUS
 62
     3
  5
1A4
 66
     1
 10
0.0
 20
0.0
 30
0.0
 70
     1
210
0.0
220
0.0
230
1.0
  0
VERTEX
  8
4
  6
CONTINUOUS
 62
     3
  5
1A5
 10
710803.08
 20
5088750.83
 30
0.0
  0
VERTEX
  8
4
  6
CONTINUOUS
 62
     3
  5
1A6
 10
710803.08
 20
5089750.83
 30
0.0
  0
VERTEX
  8
4
  6
CONTINUOUS
 62
     3
  5
1A7
 10
711803.08
 20
5089750.83
 30
0.0
  0
VERTEX
  8
4
  6
CONTINUOUS
 62
     3
  5
1A8
 10
711803.08
 20
5088750.83
 30
0.0
  0
SEQEND
  8
4
  6
CONTINUOUS
 62
     3
  5
1A9
  0
TEXT
  8
4
  6
CONTINUOUS
 62
     3
  5
1AA
 10
711144.49
 20
5089150.83
 30
0.0
 40
200.0
  1
55
  7
ROMANS
 72
     4
 11
711303.08
 21
5089250.83
 31
0.0
210
0.0
220
0.0
230
1.0
  0
POLYLINE
  8
4
  6
CONTINUOUS
 62
     3
  5
1AB
 66
     1
 10
0.0
 20
0.0
 30
0.0
 70
     1
210
0.0
220
0.0
230
1.0
  0
VERTEX
  8
4
  6
CONTINUOUS
 62
     3
  5
1AC
 10
711803.08
 20
5088750.83
 30
0.0
  0
VERTEX
  8
4
  6
CONTINUOUS
 62
     3
  5
1AD
 10
711803.08
 20
5089750.83
 30
0.0
  0
VERTEX
  8
4
  6
CONTINUOUS
 62
     3
  5
1AE
 10
712803.08
 20
5089750.83
 30
0.0
  0
VERTEX
  8
4
  6
CONTINUOUS
 62
     3
  5
1AF
 10
712803.08
 20
5088750.83
 30
0.0
  0
SEQEND
  8
4
  6
CONTINUOUS
 62
     3
  5
1B0
  0
TEXT
  8
4
  6
CONTINUOUS
 62
     3
  5
1B1
 10
712140.06
 20
5089150.83
 30
0.0
 40
200.0
  1
56
  7
ROMANS
 72
     4
 11
712303.08
 21
5089250.83
 31
0.0
210
0.0
220
0.0
230
1.0
  0
POLYLINE
  8
4
  6
CONTINUOUS
 62
     3
  5
1B2
 66
     1
 10
0.0
 20
0.0
 30
0.0
 70
     1
210
0.0
220
0.0
230
1.0
  0
VERTEX
  8
4
  6
CONTINUOUS
 62
     3
  5
1B3
 10
712803.08
 20
5088750.83
 30
0.0
  0
VERTEX
  8
4
  6
CONTINUOUS
 62
     3
  5
1B4
 10
712803.08
 20
5089750.83
 30
0.0
  0
VERTEX
  8
4
  6
CONTINUOUS
 62
     3
  5
1B5
 10
713803.08
 20
5089750.83
 30
0.0
  0
VERTEX
  8
4
  6
CONTINUOUS
 62
     3
  5
1B6
 10
713803.08
 20
5088750.83
 30
0.0
  0
SEQEND
  8
4
  6
CONTINUOUS
 62
     3
  5
1B7
  0
TEXT
  8
4
  6
CONTINUOUS
 62
     3
  5
1B8
 10
713144.74
 20
5089150.83
 30
0.0
 40
200.0
  1
57
  7
ROMANS
 72
     4
 11
713303.08
 21
5089250.83
 31
0.0
210
0.0
220
0.0
230
1.0
  0
POLYLINE
  8
4
  6
CONTINUOUS
 62
     3
  5
1B9
 66
     1
 10
0.0
 20
0.0
 30
0.0
 70
     1
210
0.0
220
0.0
230
1.0
  0
VERTEX
  8
4
  6
CONTINUOUS
 62
     3
  5
1BA
 10
713803.08
 20
5088750.83
 30
0.0
  0
VERTEX
  8
4
  6
CONTINUOUS
 62
     3
  5
1BB
 10
713803.08
 20
5089750.83
 30
0.0
  0
VERTEX
  8
4
  6
CONTINUOUS
 62
     3
  5
1BC
 10
714803.08
 20
5089750.83
 30
0.0
  0
VERTEX
  8
4
  6
CONTINUOUS
 62
     3
  5
1BD
 10
714803.08
 20
5088750.83
 30
0.0
  0
SEQEND
  8
4
  6
CONTINUOUS
 62
     3
  5
1BE
  0
TEXT
  8
4
  6
CONTINUOUS
 62
     3
  5
1BF
 10
714144.74
 20
5089150.83
 30
0.0
 40
200.0
  1
58
  7
ROMANS
 72
     4
 11
714303.08
 21
5089250.83
 31
0.0
210
0.0
220
0.0
230
1.0
  0
POLYLINE
  8
4
  6
CONTINUOUS
 62
     3
  5
1C0
 66
     1
 10
0.0
 20
0.0
 30
0.0
 70
     1
210
0.0
220
0.0
230
1.0
  0
VERTEX
  8
4
  6
CONTINUOUS
 62
     3
  5
1C1
 10
714803.08
 20
5088750.83
 30
0.0
  0
VERTEX
  8
4
  6
CONTINUOUS
 62
     3
  5
1C2
 10
714803.08
 20
5089750.83
 30
0.0
  0
VERTEX
  8
4
  6
CONTINUOUS
 62
     3
  5
1C3
 10
715803.08
 20
5089750.83
 30
0.0
  0
VERTEX
  8
4
  6
CONTINUOUS
 62
     3
  5
1C4
 10
715803.08
 20
5088750.83
 30
0.0
  0
SEQEND
  8
4
  6
CONTINUOUS
 62
     3
  5
1C5
  0
TEXT
  8
4
  6
CONTINUOUS
 62
     3
  5
1C6
 10
715144.74
 20
5089150.83
 30
0.0
 40
200.0
  1
59
  7
ROMANS
 72
     4
 11
715303.08
 21
5089250.83
 31
0.0
210
0.0
220
0.0
230
1.0
  0
POLYLINE
  8
4
  6
CONTINUOUS
 62
     3
  5
1C7
 66
     1
 10
0.0
 20
0.0
 30
0.0
 70
     1
210
0.0
220
0.0
230
1.0
  0
VERTEX
  8
4
  6
CONTINUOUS
 62
     3
  5
1C8
 10
707803.08
 20
5087750.83
 30
0.0
  0
VERTEX
  8
4
  6
CONTINUOUS
 62
     3
  5
1C9
 10
707803.08
 20
5088750.83
 30
0.0
  0
VERTEX
  8
4
  6
CONTINUOUS
 62
     3
  5
1CA
 10
708803.08
 20
5088750.83
 30
0.0
  0
VERTEX
  8
4
  6
CONTINUOUS
 62
     3
  5
1CB
 10
708803.08
 20
5087750.83
 30
0.0
  0
SEQEND
  8
4
  6
CONTINUOUS
 62
     3
  5
1CC
  0
TEXT
  8
4
  6
CONTINUOUS
 62
     3
  5
1CD
 10
708136.8
 20
5088150.83
 30
0.0
 40
200.0
  1
60
  7
ROMANS
 72
     4
 11
708303.08
 21
5088250.83
 31
0.0
210
0.0
220
0.0
230
1.0
  0
POLYLINE
  8
4
  6
CONTINUOUS
 62
     3
  5
1CE
 66
     1
 10
0.0
 20
0.0
 30
0.0
 70
     1
210
0.0
220
0.0
230
1.0
  0
VERTEX
  8
4
  6
CONTINUOUS
 62
     3
  5
1CF
 10
708803.08
 20
5087750.83
 30
0.0
  0
VERTEX
  8
4
  6
CONTINUOUS
 62
     3
  5
1D0
 10
708803.08
 20
5088750.83
 30
0.0
  0
VERTEX
  8
4
  6
CONTINUOUS
 62
     3
  5
1D1
 10
709803.08
 20
5088750.83
 30
0.0
  0
VERTEX
  8
4
  6
CONTINUOUS
 62
     3
  5
1D2
 10
709803.08
 20
5087750.83
 30
0.0
  0
SEQEND
  8
4
  6
CONTINUOUS
 62
     3
  5
1D3
  0
TEXT
  8
4
  6
CONTINUOUS
 62
     3
  5
1D4
 10
709169.74
 20
5088150.83
 30
0.0
 40
200.0
  1
61
  7
ROMANS
 72
     4
 11
709303.08
 21
5088250.83
 31
0.0
210
0.0
220
0.0
230
1.0
  0
POLYLINE
  8
4
  6
CONTINUOUS
 62
     3
  5
1D5
 66
     1
 10
0.0
 20
0.0
 30
0.0
 70
     1
210
0.0
220
0.0
230
1.0
  0
VERTEX
  8
4
  6
CONTINUOUS
 62
     3
  5
1D6
 10
709803.08
 20
5087750.83
 30
0.0
  0
VERTEX
  8
4
  6
CONTINUOUS
 62
     3
  5
1D7
 10
709803.08
 20
5088750.83
 30
0.0
  0
VERTEX
  8
4
  6
CONTINUOUS
 62
     3
  5
1D8
 10
710803.08
 20
5088750.83
 30
0.0
  0
VERTEX
  8
4
  6
CONTINUOUS
 62
     3
  5
1D9
 10
710803.08
 20
5087750.83
 30
0.0
  0
SEQEND
  8
4
  6
CONTINUOUS
 62
     3
  5
1DA
  0
TEXT
  8
4
  6
CONTINUOUS
 62
     3
  5
1DB
 10
710144.74
 20
5088150.83
 30
0.0
 40
200.0
  1
62
  7
ROMANS
 72
     4
 11
710303.08
 21
5088250.83
 31
0.0
210
0.0
220
0.0
230
1.0
  0
POLYLINE
  8
4
  6
CONTINUOUS
 62
     3
  5
1DC
 66
     1
 10
0.0
 20
0.0
 30
0.0
 70
     1
210
0.0
220
0.0
230
1.0
  0
VERTEX
  8
4
  6
CONTINUOUS
 62
     3
  5
1DD
 10
710803.08
 20
5087750.83
 30
0.0
  0
VERTEX
  8
4
  6
CONTINUOUS
 62
     3
  5
1DE
 10
710803.08
 20
5088750.83
 30
0.0
  0
VERTEX
  8
4
  6
CONTINUOUS
 62
     3
  5
1DF
 10
711803.08
 20
5088750.83
 30
0.0
  0
VERTEX
  8
4
  6
CONTINUOUS
 62
     3
  5
1E0
 10
711803.08
 20
5087750.83
 30
0.0
  0
SEQEND
  8
4
  6
CONTINUOUS
 62
     3
  5
1E1
  0
TEXT
  8
4
  6
CONTINUOUS
 62
     3
  5
1E2
 10
711144.74
 20
5088150.83
 30
0.0
 40
200.0
  1
63
  7
ROMANS
 72
     4
 11
711303.08
 21
5088250.83
 31
0.0
210
0.0
220
0.0
230
1.0
  0
POLYLINE
  8
4
  6
CONTINUOUS
 62
     3
  5
1E3
 66
     1
 10
0.0
 20
0.0
 30
0.0
 70
     1
210
0.0
220
0.0
230
1.0
  0
VERTEX
  8
4
  6
CONTINUOUS
 62
     3
  5
1E4
 10
711803.08
 20
5087750.83
 30
0.0
  0
VERTEX
  8
4
  6
CONTINUOUS
 62
     3
  5
1E5
 10
711803.08
 20
5088750.83
 30
0.0
  0
VERTEX
  8
4
  6
CONTINUOUS
 62
     3
  5
1E6
 10
712803.08
 20
5088750.83
 30
0.0
  0
VERTEX
  8
4
  6
CONTINUOUS
 62
     3
  5
1E7
 10
712803.08
 20
5087750.83
 30
0.0
  0
SEQEND
  8
4
  6
CONTINUOUS
 62
     3
  5
1E8
  0
TEXT
  8
4
  6
CONTINUOUS
 62
     3
  5
1E9
 10
712144.74
 20
5088150.83
 30
0.0
 40
200.0
  1
64
  7
ROMANS
 72
     4
 11
712303.08
 21
5088250.83
 31
0.0
210
0.0
220
0.0
230
1.0
  0
POLYLINE
  8
4
  6
CONTINUOUS
 62
     3
  5
1EA
 66
     1
 10
0.0
 20
0.0
 30
0.0
 70
     1
210
0.0
220
0.0
230
1.0
  0
VERTEX
  8
4
  6
CONTINUOUS
 62
     3
  5
1EB
 10
712803.08
 20
5087750.83
 30
0.0
  0
VERTEX
  8
4
  6
CONTINUOUS
 62
     3
  5
1EC
 10
712803.08
 20
5088750.83
 30
0.0
  0
VERTEX
  8
4
  6
CONTINUOUS
 62
     3
  5
1ED
 10
713803.08
 20
5088750.83
 30
0.0
  0
VERTEX
  8
4
  6
CONTINUOUS
 62
     3
  5
1EE
 10
713803.08
 20
5087750.83
 30
0.0
  0
SEQEND
  8
4
  6
CONTINUOUS
 62
     3
  5
1EF
  0
TEXT
  8
4
  6
CONTINUOUS
 62
     3
  5
1F0
 10
713144.49
 20
5088150.83
 30
0.0
 40
200.0
  1
65
  7
ROMANS
 72
     4
 11
713303.08
 21
5088250.83
 31
0.0
210
0.0
220
0.0
230
1.0
  0
POLYLINE
  8
4
  6
CONTINUOUS
 62
     3
  5
1F1
 66
     1
 10
0.0
 20
0.0
 30
0.0
 70
     1
210
0.0
220
0.0
230
1.0
  0
VERTEX
  8
4
  6
CONTINUOUS
 62
     3
  5
1F2
 10
713803.08
 20
5087750.83
 30
0.0
  0
VERTEX
  8
4
  6
CONTINUOUS
 62
     3
  5
1F3
 10
713803.08
 20
5088750.83
 30
0.0
  0
VERTEX
  8
4
  6
CONTINUOUS
 62
     3
  5
1F4
 10
714803.08
 20
5088750.83
 30
0.0
  0
VERTEX
  8
4
  6
CONTINUOUS
 62
     3
  5
1F5
 10
714803.08
 20
5087750.83
 30
0.0
  0
SEQEND
  8
4
  6
CONTINUOUS
 62
     3
  5
1F6
  0
TEXT
  8
4
  6
CONTINUOUS
 62
     3
  5
1F7
 10
714140.06
 20
5088150.83
 30
0.0
 40
200.0
  1
66
  7
ROMANS
 72
     4
 11
714303.08
 21
5088250.83
 31
0.0
210
0.0
220
0.0
230
1.0
  0
POLYLINE
  8
4
  6
CONTINUOUS
 62
     3
  5
1F8
 66
     1
 10
0.0
 20
0.0
 30
0.0
 70
     1
210
0.0
220
0.0
230
1.0
  0
VERTEX
  8
4
  6
CONTINUOUS
 62
     3
  5
1F9
 10
714803.08
 20
5087750.83
 30
0.0
  0
VERTEX
  8
4
  6
CONTINUOUS
 62
     3
  5
1FA
 10
714803.08
 20
5088750.83
 30
0.0
  0
VERTEX
  8
4
  6
CONTINUOUS
 62
     3
  5
1FB
 10
715803.08
 20
5088750.83
 30
0.0
  0
VERTEX
  8
4
  6
CONTINUOUS
 62
     3
  5
1FC
 10
715803.08
 20
5087750.83
 30
0.0
  0
SEQEND
  8
4
  6
CONTINUOUS
 62
     3
  5
1FD
  0
TEXT
  8
4
  6
CONTINUOUS
 62
     3
  5
1FE
 10
715144.74
 20
5088150.83
 30
0.0
 40
200.0
  1
67
  7
ROMANS
 72
     4
 11
715303.08
 21
5088250.83
 31
0.0
210
0.0
220
0.0
230
1.0
  0
ENDSEC
  0
EOF
